Guitaretab - guitar tabs
Song name
# A B C D E F G H I J K L M N O P Q R S T U V W X Y Z

Red Hot Chili Peppers - Dont Forget Me tab

For the verses play this really fast

e-0-0-0-0-0-0-0-0-0-0-0-0-0-0-0-0-0-0-0-0-0-0-0-0-| 
b-------------------------------------------------|
g-------------------------------------------------|
d-------------------------------------------------| x8
a-------------------------------------------------|
e-------------------------------------------------|

-------------------------------------------------|
-10-10-10-10-10-10-10-10-10-10-10-10-10-10-10-10-|
-------------------------------------------------|
-------------------------------------------------|
-------------------------------------------------|
-------------------------------------------------|

-0-0-0-0-0-0-0-0-0-0-0-0-0-0-0-0-0-0-0-0-0-0-0-0-|
-------------------------------------------------|
-------------------------------------------------|
-------------------------------------------------|
-------------------------------------------------|
-------------------------------------------------|
|
-------------------------------------------------|
-10-10-10-10-10-10-10-10-10-10-10-10-10-10-10-10-|
-------------------------------------------------|
-------------------------------------------------|
-------------------------------------------------|
-------------------------------------------------|

-0-0-0-0-0-0-0-0-0-0-0-0-0-0-0-0-0-0-0-0-0-0-0-0-|
-------------------------------------------------|
-------------------------------------------------|
-------------------------------------------------|
-------------------------------------------------|
-------------------------------------------------|


Then play this 2x

-------------------------------------------------|
-10-10-10-10-10-10-10-10-10-10-10-10-10-10-10-10-|
-------------------------------------------------|
-------------------------------------------------|
-------------------------------------------------|
-------------------------------------------------|
[ Tab from: http://www.guitaretab.com/r/red-hot-chili-peppers/30524.html ]
-0-0-0-0-0-0-0-0-0-0-0-0-0-0-0-0-0-0-0-0-0-0-0-0-|   
-------------------------------------------------|
-------------------------------------------------|
-------------------------------------------------|
-------------------------------------------------|
-------------------------------------------------|


CHORUS
-------------------------------------------------|
-------------------------------------------------|
---------------------------------5-5-5-5-5-5-5-5-|
-7-7-7-7-7-7-7-7-3-3-3-3-3-3-3-3-5-5-5-5-5-5-5-5-|
-7-7-7-7-7-7-7-7-3-3-3-3-3-3-3-3-3-3-3-3-3-3-3-3-|
-5-5-5-5-5-5-5-5-1-1-1-1-1-1-1-1-----------------|

-------------------------------------------------|
-------------------------------------------------|
-------------------------------------------------|
-5-5-5-5-5-5-5-5---------------------------------|
-5-5-5-5-5-5-5-5---------------------------------|
-3-3-3-3-3-3-3-3---------------------------------|

-12-12-12-12-12-12-12-12-12-12-12-12-12-12-12-12-|
-------------------------------------------------|
-------------------------------------------------| x2(1st Chorus)
-------------------------------------------------| x4(2nd Chorus)
-------------------------------------------------|
-------------------------------------------------|


After 1st chorus, play this:

-12---------12--14^(15)--12---------7------------5--3----|
-----8--10-------------------8--10-----10--8--5--------5-|
---------------------------------------------------------|
---------------------------------------------------------|
---------------------------------------------------------|
---------------------------------------------------------|


BRIDGE:

-5--3-----5--3---------5--3-----5--3---|
-------5---------5--5--------5-------5-|
---------------------------------------|
---------------------------------------| x4
---------------------------------------|
---------------------------------------|

Then go back to the verse

ENJOY!
Related for Dont Forget Me tab