Song name
# A B C D E F G H I J K L M N O P Q R S T U V W X Y Z

Red Hot Chili Peppers - Save The Population tab

Well, there were no tabs over 80% right, so here you go. For comments and stuff contact 
me at tim-luyten@hotmail.com. Please rate =)

Also, you might wanna use some delay throughout the whole song.

h Hammer On
p Pull Off
b Half Bend
/ Slide Up

Intro:

e----6---------10-10-----6---------8-8-----6-----------------------------|
B--8---6---------------8---6-------------8---6-------10-10b11-8--6b7-3---|
G---------8-7----7--7---------8-7---7-7---------8-7----------------------|
D------------------------------------------------------------------------|
A------------------------------------------------------------------------|
E------------------------------------------------------------------------|


Verse:

e----6---------13-13-131313----6---------8-8----|
B--8---6---------------------8---6--------------|
G---------8-7-----------------------8-7---7-7---|
D-----------------------------------------------|
A-----------------------------------------------|
E-----------------------------------------------|

e----6---------10-101010-8-888-6-666-5-555-4-444---|
B--8---6-------------------------------------------|
G---------8-7--------------------------------------|
D--------------------------------------------------|
A--------------------------------------------------|
E--------------------------------------------------|

e---------------------------------------------------------------3-3-3333---|
B----------------------------------------------------7-7h8p7----3-3-3333---|
G--------------3/5555-------------5/7777---------------------7--3-3-3333---|
D--5--8---------------5--8---------------5--8------------------------------|
A--------5-6----------------5-6----------------5-6-------------------------|
E--------------------------------------------------------------------------|


Pre-Chorus:

   Gm             Bb
e--3--3--3--3--3--6--6--6--6--6---|
B--3--3--3--3--3--6--6--6--6--6---|
G--3--3--3--3--3--7--7--7--7--7---|  x2
D--5--5--5--5--5--8--8--8--8--8---|
A--5--5--5--5--5--8--8--8--8--8---|
E--3--3--3--3--3--6--6--6--6--6---|

   Bb5             Cm              D5              D
e------------------2-2-2-2-2-2-2-2-----------------5-5-5-555555555---|
B------------------4-4-4-4-4-4-4-4-----------------7-7-7-777777777---|
G--8-8-8-8-8-8-8-8-5-5-5-5-5-5-5-5-7-7-7-777777777-7-7-7-777777777---|
D--8-8-8-8-8-8-8-8-5-5-5-5-5-5-5-5-7-7-7-777777777-7-7-7-777777777---|
A--6-6-6-6-6-6-6-6-3-3-3-3-3-3-3-3-5-5-5-555555555-5-5-5-555555555---|
E--------------------------------------------------------------------|


Chorus:

I think these are the right chords for the acoustic in the background, you just use some 
random strumming.

   Eb              F               Gm
e--6-6-6-6-6-6-6-6-1-1-1-1-1-1-1-1-3-3-3-3-3-3-3-3-3-3-3-3-3-3-3-3---|
B--8-8-8-8-8-8-8-8-1-1-1-1-1-1-1-1-3-3-3-3-3-3-3-3-3-3-3-3-3-3-3-3---|
G--8-8-8-8-8-8-8-8-2-2-2-2-2-2-2-2-3-3-3-3-3-3-3-3-3-3-3-3-3-3-3-3---|
D--8-8-8-8-8-8-8-8-3-3-3-3-3-3-3-3-5-5-5-5-5-5-5-5-5-5-5-5-5-5-5-5---|
A--6-6-6-6-6-6-6-6-3-3-3-3-3-3-3-3-5-5-5-5-5-5-5-5-5-5-5-5-5-5-5-5---|
E------------------1-1-1-1-1-1-1-1-3-3-3-3-3-3-3-3-3-3-3-3-3-3-3-3---|

Main Chorus riff:

e-----15---------------------------------------------|
B--------15----13-15-13-15-------15----13-15-13-15---|
G--12-------12-------------12-12----12---------------|
D----------------------------------------------------|
A----------------------------------------------------|
E----------------------------------------------------|

e----------------------------------------------------|
B--------15----13-15-13-15-------15----13-15---------|
G--12-12----12-------------12-12----12-------12------|
D----------------------------------------------------|
A----------------------------------------------------|
E----------------------------------------------------|

e--15--14--------------------------------------------|
B--------------13-15-13-15-------15----13-15-13-15---|
G----12--12-12-------------12-12----12---------------|
D----------------------------------------------------|
A----------------------------------------------------|
E----------------------------------------------------|

e----------------------------------------------------|
B--------15----13-15-13-15-------15----13-15---------|
G--12-12----12-------------12-12----12-------12------|
D----------------------------------------------------|
A----------------------------------------------------|
E----------------------------------------------------|

e--15--14--------------------------------------------|
B--------------13-15-13-15-------15----13-15-13-15---|
G----12--12-12-------------12-12----12---------------|
D----------------------------------------------------|
A----------------------------------------------------|
E----------------------------------------------------|

e----------------------------------------------------|
B--------15----13-15-13-15-------15----13-15---------|
G--12-12----12-------------12-12----12-------12------|
D----------------------------------------------------|
A----------------------------------------------------|
E----------------------------------------------------|

e--15--14--------------------------------------------|
B--------------13-15-13-15-------15----13-15-13-15---|
G----12--12-12-------------12-12----12---------------|
D----------------------------------------------------|
A----------------------------------------------------|
E----------------------------------------------------|

e-----------------------15-15-15-15-1515151515-------|
B--------15----13-15-13-15-15-15-15-1515151515-------|
G--12-12----12---------------------------------------|
D----------------------------------------------------|
A----------------------------------------------------|
E----------------------------------------------------|

Interlude:

e----6---------13-13-131313----6--------11-11-11111111---|
B--8---6---------------------8---6-----------------------|
G---------8-7-----------------------8-7------------------|
D--------------------------------------------------------|
A--------------------------------------------------------|
E--------------------------------------------------------|

e----6---------10-101010-8-888-6-666-5-555-4-444---|
B--8---6-------------------------------------------|
G---------8-7--------------------------------------|
D--------------------------------------------------|
A--------------------------------------------------|
E--------------------------------------------------|

Verse 2:

e----6---------10-10------6--------8-8----|
B--8---6---------8--8---8---6-------------|
G---------8-7------------------8-7--7-7---|
D-----------------------------------------|
A-----------------------------------------|
E-----------------------------------------|

e----6---------10-101010-8-888-6-666-5-555-4-444---|
B--8---6-------------------------------------------|
G---------8-7--------------------------------------|
D--------------------------------------------------|
A--------------------------------------------------|
E--------------------------------------------------|

e---------------------------------------------------------------3-3-3333---|
B----------------------------------------------------7-7h8p7----3-3-3333---|
G--------------3/5555-------------5/7777---------------------7--3-3-3333---|
D--5--8---------------5--8---------------5--8------------------------------|
A--------5-6----------------5-6----------------5-6-------------------------|
E--------------------------------------------------------------------------|


Repeat Pre-Chorus

Repeat Chorus twice

That's it, hope you enjoyed
Tap to rate this tab
 
# A B C D E F G H I J K L M N O P Q R S T U V W X Y Z