Song name
# A B C D E F G H I J K L M N O P Q R S T U V W X Y Z

Red Hot Chili Peppers - Rivers Of Avalon tab

Intro:with chorus pedal

E  ------------------------------------------------------------------------|
B  ------------------------------------------------------------------------|
G  ------------------------------------------------------------------------|
D  ---2-----------------------------------------2-0--------------0---------|
A  -0---0--2-3--------3-------3--------2----------2----3------------2---2--|
E  ---------------1---0----1-------1---3---3-----------1----1------1-------|

E  ------------------------------------------------------------------------|
B  ------------------------------------------------------------------------|
G  ------------------------------------------------------------------------|
D  ---2------------------------------------------2-0--------- ---0---2-----|
A  -0---0--2-3--------3-------3----------2------------2----3------------2--|
E  ---------------1---0----1-------1-1--3---3------------1----1------------|


Verse:
 Same as Intro , but just before the chorus:

E  --------------------------------------------------------------------------|
B  --------------------------------------------------------------------------|
G  --------------------------------------------------------------------------|
D  ---2------------------------------------------2-0--------- ---------------|
A  -0---0--2-3--------3-------3---------2------------2----3----3----3---3----|
E  ---------------1---0----1-------1-1--3---3-----------1----1---1----1-- 1--|chorus:chorus pedal off

E ------------------------------------------------------------------------------------|
B-------------------------------------------------------------------------------------|
G----9--9--9--9--9--9--5-h-7 ---9--9--9--9--9--9--5-h-7 ----9--9--9--9--9--9--5-h-7 --|
D-------------------------------------------------------------------------------------|
A-------------------------------------------------------------------------------------|
E-------------------------------------------------------------------------------------|

E--------------------------------|
B--------------------------------|
G--10--8--8--10--8-8--10---------|
D---9---9--9--9-- 9--9--9--------|
A--------------------------------|
E--------------------------------|

Solo:

E---------------------------------------------------------------------------------------------------------|
B---------------------------------------------------------------------------------------------------------|
G---------------------------------------------------------------------------------------------------------|
D------14-12--------------------- 14 ---12 ----------12-------14-12---------------------------------------|
A--12 ----------15-14--12---12------------15---14------12---------------15-14--12-12----------------------|
E-----------------------------------------------------------------------------------------------------12--|


End: Same as Refrain , just repeat :

E--------------------------------|
B--10--8--8--10--8--8-10---------|
G--9---9--9---9---9--9---9-------|
D--------------------------------|
A--------------------------------|
E--------------------------------|

play Dm at the end
Tap to rate this tab
# A B C D E F G H I J K L M N O P Q R S T U V W X Y Z