Song name
# A B C D E F G H I J K L M N O P Q R S T U V W X Y Z

Red Hot Chili Peppers - Savior tab

#----------------------------------PLEASE NOTE--------------------------------#
#This file is the author's own work and represents their interpretation of the#
#song. You may only use this file for private study, scholarship, or research.#
#-----------------------------------------------------------------------------#
#-- File created with Instab - http://www.pconline.com/~smcarey/instab.html --#
#-----------------------------------------------------------------------------#

Author/Artist: Red Hot Chili Peppers
Title: Savior


Standard Tuning

-------|-x--x--x---|--|-x---|-------------------------------------------------|
-------|-3--1--0---|--|-0---|-------------------------------------------------|
-------|-2--0--0---|--|-1---|-------------------------------------------------|
-------|-x--x--x---|--|-2---|-------------------------------------------------|
-------|-5--3--2---|--|-2---|-------------------------------------------------|
-------|-----------|--|-x---|-------------------------------------------------|
        Intro/Verse Chords Strum

-------|------|---------------------------------------------------------------|
-------|------|---------------------------------------------------------------|
-------|------|---------------------------------------------------------------|
-------|------|---------------------------------------------------------------|
-------|-17---|---------------------------------------------------------------|
-------|------|---------------------------------------------------------------|
        Interlude Guitar Repeat

-------|-----------------------------------------------------------------|----|
-------|-----------------------------------------------------------------|----|
-------|-----------------------------------------------------------------|----|
-------|-----------------------------------------------------------------|----|
-------|-----------------------------------------------------------------|----|
-------|-10--10-10-8-8-8-3--3-3-3--3-3-3-10--10-10-8-8-8-3--3-3-6--6-6-6-|----|
        Interlude bass

-------|-------------------------|--|-----------------------------------------|
-------|-------------------------|--|-----------------------------------------|
-------|-------------------------|--|-----------------------------------------|
-------|----------------15-12----|--|-----------------------------------------|
-------|-15---15---15---------17-|--|-----------------------------------------|
-------|-------------------------|--|-----------------------------------------|
        Interlude G1 Pt.2

-------|-------------------------------------|--|-------------|--------------|
-------|-------------------------------------|--|-------------|--------------|
-------|----12-------12-------12----12-------|--|-------------|----12--------|
-------|-------12-------12-------------12----|2x|-15-12----12-|-15-------12--|
-------|-15-------15-------15----15-------15-|--|-------15----|-------15-----|
-------|-------------------------------------|--|-------------|--------------|
        Interlude G1 Pt.3        End              1st End       2nd End
Tap to rate this tab
# A B C D E F G H I J K L M N O P Q R S T U V W X Y Z