Song name
# A B C D E F G H I J K L M N O P Q R S T U V W X Y Z

Red Hot Chili Peppers - The Adventures Of Rain Dance Maggie tab

-------------------------------------------------------------------------------
            The Adventures of Rain Dance Maggie by Red Hot Chili Peppers
-------------------------------------------------------------------------------
Tabbed by: Brambleclaw8
E-mail: Brambleclaw4ever@yahoo.com

Tuning: E A D G B e     

e|----------------------------------------------------------------------------------|
B|----------------------------------------------------------------------------------|
G|-----9---x---9---------9---9---9---------9------------------9---------------x-x-9-|
D|-----9---x---9---------9---9---9---------9---------5-x-5\---9---------7h9---x-x---|
A|-----7---x---7---7b9r--7---7---7---7b9r--7---7b9r-----------7---7b9r--------------|
E|----------------------------------------------------------------------------------|

e|------------------------------------|
B|------------------------------------|
G|-----9---9---------9----9-----------|
D|-----9---9---------9----9-----------|
A|-----7---7---7b9r--7\---7---7b9r----|
E|------------------------------------|

Chorus:(Chords played by Guitar I for first part of chorus, then continued by 
Guitar II for second part)
e|-----3---0---3---0--3---3---0---5----|
B|-----3---0---3---0--5---3---1---7----|
G|-----4---0---4---0--5---4---2---7----| (Strum each chord a few times)
D|-----5---2---5---2--5---5---2---7----|
A|-----5---2---5---2--3---5-------5----|
E|-----3---0---3----------3------------|

e|---------------------------10-----------------------15-----15b17r------------------|
B|--8-10b12r-8----------8-10b12-8-------15b17r--13-15b17-12--------15b17r-10b12r-----|
G|------------9-------------------9br---------14---------------------------------9br-|
D|-------------7b9r-7\5--------------------------------------------------------------|
A|-----------------------------------------------------------------------------------|
E|-----------------------------------------------------------------------------------|

Verse 2
e|---------------------------------------------------------------------------|
B|-----7---------------------------------------------------------------------|
G|-----9---9-------------9---9-------------9----9----------------------------|
D|-----9---9-------7h9---9---9-------7h9---9----9---------7/9\---------------|
A|-----7---7---7b9r------7---7---7b9r------7\---7---7b9r---------------------|
E|---------------------------------------------------------------------------|

Chorus: (Chords played by Guitar II)
e|----------------------------10--------------------15----15b17r-------------------|
B|--8-10b12r-8-----------8-10b12-----15b17r--13--15b17-12--------15b17r--10b12r----|
G|------------9------------------9---------14----------------------------------9br-|
D|-------------7b9r-7\5------------------------------------------------------------|
A|---------------------------------------------------------------------------------|
E|---------------------------------------------------------------------------------|

e|------------------------------------------10~/12~-----|
B|-------------------------------------8~/10~-----------|
G|----------------------------------9~------------------|
D|-------------------------------9~---------------------|
A|----------5h7-5----------7/9\7------------------------|
E|-----5/7br------7-7-8-8\------------------------------|


e|-----------------------------|
B|-----------------------------|
G|-----9---7\4---9\4---9\4-----| (9\4 repeats a few times)
D|-----------------------------|
A|-----------------------------|
E|-----------------------------|

Chorus: (Chords played by Guitar II)
e|-----------------------------------------------------15----15b17r--------------------|
B|---8-pb10r-----------8-pb10r-10b12r8---15b17r--13---15b17-12-------15b17r-10b12r----|
G|----------9-------------------------9--------14---------------------------------9br--|
D|-----------7b9r-7\5------------------------------------------------------------------|
A|-------------------------------------------------------------------------------------|
E|-------------------------------------------------------------------------------------|

e|-----------------------15b17r----------------------------------15------|
B|---8-10b12r-8---15b17-17------8-10b-12r-10-8-----15b17r--13-15b17-12---|
G|--------------9-----------------------------9br--------14--------------|
D|-----------------------------------------------------------------------|
A|-----------------------------------------------------------------------|
E|---------------------------------------------------------------------|

e|---15b17r--------------------|
B|----------15b17r--10b12r-----|
G|------------------------9b---|
D|-----------------------------|
A|-----------------------------|
E|-----------------------------|

e|-------------------------------------------------------------------------|
B|-------------------------------------------------------------------------|
G|-----9---9---9---9-----(9)-(9)-(9)-------9-------------------------------|
D|-----9---9---9---9------9---9---9--------9-------4/5--7b9r--7/9----------|
A|-----7---7---7---7------7---7---7--7b9r--7--7b9r-----------------7b9r----|
E|--------------------7/---------------------------------------------------|

4:18
Guitar I:
e|---------------------------------------------------------------------|
B|---------------------------------------------------------------------|
G|---------------------------------------------------------------------|
D|------5-7-5-7-5-9-5---5-5-7b9r-5------5-5-7b9r-5-5h7p5-7b9r-5--------|
A|--5-7---------------7------------7b9r-------------------------7b9r---|
E|---------------------------------------------------------------------|

e|--------------------------------------------------------------------|
B|--------------------------------------------------------------------|
G|--------------------------------------------------------------------|
D|--5-5-7b9r-5------5-5-7b9r-5------5-5-7b9r-5--------5-7b9r-5--------|
A|-------------7b9r------------7b9r------------7b9-7-----------7b9r---|
E|--------------------------------------------------------------------|

e|----------------------------------------------|
B|----------------------------------------------|
G|----------------------------------------------|
D|--5-5-7b9r5------5-5-7b9r5------5-5-7b9r-5----|
A|------------7b9r-----------7b9r---------------|
E|----------------------------------------------|


4:18
Guitar II:

e|---------------------------------------------------------------|
B|---------------------------------------------------------------|
G|---9---9---9---9----------9---7-7-x-7--9---------x-x-x-x-x-x---|
D|---9---9---9---9----------9--9-9-------9---------x-x---x---x---|
A|---7---7---7---7---7b9r---7------------7---7b9r----------------|
E|---------------------------------------------------------------|


************************************

| /   slide up
| \   slide down
| h   hammer-on
| p   pull-off
| ~   vibrato
| x   Mute note
| b   Bend
| pb  Pre-bend
| br  Bend release

************************************
Tap to rate this tab
 
# A B C D E F G H I J K L M N O P Q R S T U V W X Y Z