Song name
# A B C D E F G H I J K L M N O P Q R S T U V W X Y Z

Red Hot Chili Peppers - Road Trippin tab

Song: Road Trippin'
Band: Red Hot Chili Peppers

I love this song and it took a long time to find a good tutorial. I've finally figured 
it out. So I decided to upload this tab to help you playing the song. ;)



-PART A:

   Q   Q   E E Q     Q   E E E E Q     Q   Q   E E Q     Q   E E E E Q

|------3----------|--3---------3----|-----------------|------------------|
|------------0----|--------0--------|------5----------|--4---------4-----|
|-----------------|-----------------|------------0----|--------0---------|
|--2-------2---2--|------2---2---2--|-----------------|------------------|
|-----------------|-----------------|--3---3---3---3--|--2---2---2---2---|
|------0----------|--0--------------|-----------------|------------------|

Variation of Part A:

                     Q   E E E E Q

|                 |--3-----5---3----|
|                 |-----------------|
|    Same  as     |-----------------|   Same  as
|        A        |------2---2---2--|       A
|                 |-----------------|
|                 |--0--------------|






-PART B:

   Q   E E E E Q     Q   E E E E Q     Q   E E E E Q     E E E E E E Q

|--0---------0----|-----------------|-----------------|-----------------|
|--------1--------|--3---------3----|--5---------5----|--12----12-------|
|-----------------|--------0--------|--------0--------|----12------12---|
|------2-------2--|------0-------0--|------5-------5--|------12------12-|
|--0-------0------|--2-------2------|--3-------3------|--10------10-----|
|-----------------|-----------------|-----------------|-----------------|






-BRIDGE: (play it twice and use the different endings.)

   Q   E E E Q.      Q   E E E Q.      Q   E E E Q.      Q   E E E Q.

|-----------------|-----------------|-----------------|-----------------|
|--8---------8----|--2---------2----|--5---------5----|--7---------7----|
|--------7--------|--------0--------|--------5--------|--------5--------|
|------9----------|------2----------|------5----------|------7----------|
|--7-------7------|--0-------0------|--3-------3------|--5-------5------|
|-----------------|-----------------|-----------------|-----------------|

|-----------------|-----------------|-----------------|
|--8---------8----|--2---------2----|--5---------5----|
|--------7--------|--------0--------|--------5--------|   Ending
|------9----------|------2----------|------5----------|
|--7-------7------|--0-------0------|--3-------3------|
|-----------------|-----------------|-----------------|

Ending 1:

   Q   E E E Q.

|--5---------5----|
|--------4--------|
|------5----------|
|--4-------4------|
|-----------------|
|-----------------|

Ending 2:

   Q   E Q   E Q     E Q   E Q   Q     Q   E Q   E Q     E Q   E Q   Q
S
|--5-----------5--|----------5----/-|--14----11----8--|----5-----2------|
|--------4-----4--|----4-----4----/-|--13----10----7--|----4-----1------|
|-----------------|---------------/-|--14----11----8--|----5-----2------|
|--4---4-----4----|--4-----4-----4/-|--13--10----7----|--4-----1-----1--|
|-----------------|-----------------|-----------------|-----------------|
|-----------------|-----------------|-----------------|-----------------|







-OUTRO:

couldn't figure out the rhythm.

|-----3-----------3----------3------------3---|
|-----------0-----------0----------0----------|
|---------------------------------------------|   Fade out +
|---2-----2-----2-----2-----2-----2-----2-----|   Get slower
|---------------------------------------------|
|---------------------------------------------|






-LYRICS:
                                                      ___
Road trippin' with my two favourite allies             |
Fully loaded we ghot snacks and supplies
It's time to leave this town
It's time to stea away
Let's go get lost
Anywhere in the U.S.A.

Let's go get lost
Let's go get lost                                    Part A

Blue you sit so pretty
West of the one
Sparkle light with yellow icing
Just a mirror for the sun
Just a mirror for the sun
Just a mirror for the
                                                      _|_
                                                       |

Su-u-u-n
These smiling eyes are just a mirror for             Part B

                                                      _|_
                                                       |
So much has come Before those battles lost and won
This life is shiningmore forever in the sun
Now let us check our heads
And let us check the surf
Saying high and dry's                                Part A
More trouble than it's worth
In the sun
Just a mirror for the sun
Just a mirror for the
                                                      _|_
                                                       |

Su-u-u-n
These smiling eyes are just a mirror for             Part B

                                                      _|_
                                                       |

                                                     Bridge


                                                      _|_
                                                       |
In Big Sur we take some time to linger on
We three hunky dories got our snakefinger on
Now let us drink the stars
It's time to steal away
Let's go get lost
Right here in the U.S.A.

Let's go get lost                                    Part A
Let's go get lost

Blue you sit so pretty
West of the one
Sparkle light and yellow icing
Just a mirror for the sun
Just a mirror for the sun
Just a mirror for the                                 _|_
                                                       |

Su-u-u-n
These smiling eyes are just a mirror for             Part B
These smiling eyes are just a mirror for
Your smiling eyes are just a mirror for
                                                      _|_
                                                       |

                                                     Outro

                                                      _|_


That's it.
Enjoy^^
Tap to rate this tab
 
# A B C D E F G H I J K L M N O P Q R S T U V W X Y Z