Song name
# A B C D E F G H I J K L M N O P Q R S T U V W X Y Z

Red Hot Chili Peppers - Wet Sand tab

b = BEND h = HAMMER ON p = PULL OFF

e|------------------------------------------------------------------|
B|-19b--16--19b--16--19b--19--16--19b-------------------------------|
G|------------------------------------------------------------------|
D|------------------------------------------------------------------|
A|------------------------------------------------------------------|
E|------------------------------------------------------------------|

e|------------------------------------------------------------------|
B|-------19--19b----------------------------------------------------|
G|--18b-----------18b--16--18b--18--15--16--15h16--15h16p15---------|
D|------------------------------------------------------------------|
A|------------------------------------------------------------------|
E|------------------------------------------------------------------|

e------------------------------------------------------------------|
B------------------------------------------------------------------|
G------------------------------------------------------------------|
D--18--16--16h18p16----------------16h18--18b--18b--18b---16h18----|
A--------------------18-----16h18----------------------------------|
E------------------------------------------------------------------|

e|-------------------------------------------------------------------------|
B|-----------------------16--19-------16--19------16--19-------16--19----16|
G|-18b--16--18--16--18b----------18b---------18b----------18b---------18---|
D|-------------------------------------------------------------------------|
A|-------------------------------------------------------------------------|
E|-------------------------------------------------------------------------|

e|--x--x--x---21b--21b--21b--21b---16----16-18-19--21b--21b--21b--16-|
B|--x--x--x----------------------------------------------------------|
G|--x--x--x----------------------------------------------------------|
D|--x--x--x----------------------------------------------------------|
A|--x--x--x----------------------------------------------------------|
E|--x--x--x----------------------------------------------------------|

e|--16-18-19-19----19b--16---18-19--18h19p18--16---------------------|
B|------------------------------------------------19-----------------|
G|-------------------------------------------------------------------|
D|-------------------------------------------------------------------|
A|-------------------------------------------------------------------|
E|-------------------------------------------------------------------|

e|---16-18-19--18h19p18--16--------------------------------------------|
B|--------------------------19--19B----------------19------------------|
G|-----------------------------------18b--18-16-18b---18b--16----------|
D|---------------------------------------------------------------------|
A|---------------------------------------------------------------------|
E|---------------------------------------------------------------------|
Tap to rate this tab
 
# A B C D E F G H I J K L M N O P Q R S T U V W X Y Z