Song name
# A B C D E F G H I J K L M N O P Q R S T U V W X Y Z

Red Hot Chili Peppers - Love Of Your Life tab

Main Riff:

         gm
|---------3h5p3--------|---------3h5p3--------|---------3h5p3------|-0--|
|-------3-------3------|-------3-------3------|-------3-------3----|-1--|
|-----3-----------3----|-----3-----------3----|-----3----------3---|-2--|
|---5------------------|---5------------------|---5-------------5--|-3--|
|----------------------|----------------------|--------------------|-3--|
|----------------------|----------------------|--------------------|-0--|
         B
|---------6h8p6--------|---------6h8p6--------|---------6h8p6------|-0--|
|-------6-------6------|-------6-------6------|-------6-------6----|-1--|
|-----7-----------7----|-----7-----------7----|-----7-----------7--|-2--|
|---8------------------|---8------------------|---8----------------|-3--|
|----------------------|----------------------|--------------------|-3--|
|----------------------|----------------------|--------------------|-0--|


Before Chorus:

        B           gm
|--666--666--666-6-|-3-|
|--666--666--666-6-|-3-|
|--777--777--777-7-|-3-|
|--888--888--888-8-|-5-|
|--xxx--xxx--xxx-x-|-5-|
|--xxx--xxx--xxx-x-|-3-|


Chorus:


to  be c.d

Tap to rate this tab
# A B C D E F G H I J K L M N O P Q R S T U V W X Y Z