Song name
# A B C D E F G H I J K L M N O P Q R S T U V W X Y Z

Red Hot Chili Peppers - Get On Top tab

Artist: Red Hot Chili Peppers
Song: Get On Top
Album: Californication

h = Hammer-on
p = Pull-off
/ = slide
x = mute

Wah-wah
+ = closed (toe down)
o = open (toe up)

Intro
Riff A
   + o                     + o
|-------------------------------------------|----\
|-------------------------------------------|     \
|-------------------------------------------|      \
|-------------------------------------------|       \
|--7-7-7-7-10-10-10-10-x-7-7-7-10-10-10-10--|        |
|-------------------------------------------|        |
   + o                     + o                       |
|-------------------------------------------|  Play 3X
|-------------------------------------------|        |
|-------------------------------------------|       /
|-------------------------------------------|      /
|--7-7-7-7-10-10-10-10-7-7-7-7-10-10-10-10--|     /
|-------------------------------------------|----/
Chorus
Riff B     No Wah-wah in chrous
|-------------------------------------------|
|-------------------------------------------|
|-------------------------------------------|   Play 5X
|--7-7-10-10----------5-h-7-------10-10-----|
|-------------------------------------------|
|-------------------------------------------|

|----------------------------------------12--|
|----------------------------------------12--|
|----------------------------------------12--|  
|--7-7-10-10----------5-h-7------10-10-------|
|--------------------------------------------|
|--------------------------------------------|

|-------------------------------------------|
|-------------------------------------------|
|-------------------------------------------|
|--7-7-10-10----------5-h-7-------10-10-----|
|-------------------------------------------|
|-------------------------------------------|

|-------------------------------------------|
|-------------------------------------------|
|-------------------------------------------|
|--7-7-10-10------x---5-h-7-------10-10-----|
|-------------------------------------------|
|-------------------------------------------|

|-------------------------------------------|
|-------------------------------------------|
|-------------------------------------------|
|--7-7-10-10----------5-h-7-------10-10-----|
|-------------------------------------------|
|-------------------------------------------|
Riff C
|---12----12-------12-----------12----------|
|---12----12-------12-----------12----------|
|---12----12-------12-----------12----------|
|-------------------------------------------|
|-------------------------------------------|
|-------------------------------------------|

   + o                     + o
|-------------------------------------------|
|-------------------------------------------|  
|-------------------------------------------|   
|-------------------------------------------|
|--7-7-7-7-10-10-10-10-x-7-7-7-10-10-10-10--|   
|-------------------------------------------|
   + o                     + o               
|-------------------------------------------|
|-------------------------------------------|
|-------------------------------------------|
|-------------------------------------------|
|--7-7-7-7-10-10-10-10-7-7-7-7-10-10-10-10--|
|-------------------------------------------|
Back to the 1st Verse (2nd verse is the same as the 1st)

Then back to Chorus  (2nd chorus is same as the 1st)

and repeat this again (3rd verse and chorus are the same as the 1st and 2nd.)

Interlude

|---12----12-------12-----------12----------|
|---12----12-------12-----------12----------|
|---12----12-------12-----------12----------|
|-------------------------------------------|
|-------------------------------------------|
|-------------------------------------------|

Riff D
   +     o     +     o     +     o     +     o
|--10----10----10----10----10----10----10----10-| Repeat 2X
|--10----10----10----10----10----10----10----10-|
|--10----10----10----10----10----10----10----10-|
|-----------------------------------------------|
|-----------------------------------------------|
|-----------------------------------------------|

   +     o     +     o     +     o     +     o
|--8-----8-----8-----8-----8-----8-----8-----8-| Repeat 3X
|--8-----8-----8-----8-----8-----8-----8-----8-|
|--9-----9-----9-----9-----9-----9-----9-----9-|
|----------------------------------------------|
|----------------------------------------------|
|----------------------------------------------|

   +          o    +        o     +        o
|--10---------10---10----10-10----10--10---10--|-----\
|--11---------11---11----11-11----11--11---11--|      \
|--10---------10---10----10-10----10--10---10--|       \
|----------------------------------------------|        \
|----------------------------------------------|         \
|----------------------------------------------|          |
                                                        Repeat 2X
   +          o    +        o     +        o              |
|--12---------12---12----12-12----12--12---12--|          |
|--13---------13---13----13-13----13--13---13--|         /
|--12---------12---12----12-12----12--12---12--|        /
|----------------------------------------------|       /
|----------------------------------------------|      /
|----------------------------------------------|-----/

Solo
No wah-wah in solo
|----------------------------------------------|
|----------------------------------------------|
|-----------12///14--------12--------10--------|
|-----------x---------------x----------x-------|
|-----------10///12--------10---------8--------|
|----------------------------------------------|

|----------------------------------------------|
|----------------------------------------------|
|---10//12-------------------------------------|
|--------x------10///12------------------------|
|----8//10-------------------------------------|
|----------------8///10------------------------|

|----------------------------------------------|
|----------------------------------------------|
|-----------10----10//12----12----17-------14--|
|--12------------------------------x-----------|
|------------8----12//14----14----15-------12--|
|--10------------------------------------------|

|----------------------------------------------|
|----------------------------------------------|
|------------------------------19---21------19-|
|-------------------------------x----x---------|
|------------------------------17---19------17-|
|----------------------------------------------|

|-----------------------------------------------------|
|-----------------------------------------------------|
|-----------------------------------------------------|
|---5---5//7---7---7---7//10--10--10—10//12---12---12-|
|---x---x------x---x---x------x---x---x--------x----x-|
|---3---3//5---5---5---5//8---8---8---8//10---10---10-|

|----------------------------------------------|
|----------------------------------------------|
|----------------------------------------------|
|---12-----14-------14---------------------14--|
|----x------x--------x----------------------x--|
|---10-----12-------12---------------------12--|

|----------------------------------------------|
|----------------------------------------------|
|----------------------------------------------|
|----------------------------------------------|
|----------------------------------------------|
|---13-----------------------------------13----|

|----------------------------------------------|----|
|----------------------------------------------|----|
|----------------------------------------------|----|
|----------------------------------------------|----|
|----------------------------------------------|----|
|---13-h-15-----15----------15----15-----------|-12-|

|----------------------------------------------|
|----------------------------------------------|
|----------------------------------------------|
|----------------------------------------------|
|----------------------------------------------|
|--12-h-14------14---------------------14------|
End of Solo

Repeat the Verse once more and you’re done!
:-)
Tap to rate this tab
# A B C D E F G H I J K L M N O P Q R S T U V W X Y Z