Song name
# A B C D E F G H I J K L M N O P Q R S T U V W X Y Z

Red Hot Chili Peppers - The Sunset Sleeps tab

This is my first tab so I hope you will like it ;)

I'll put the rest soon

Intro:

Gtr.1

|------------------------12-----------12-----------------------|
|---14/12/14---14/12/14-----14/12/14------14/12----12-12-12-12-|
|--------------------------------------------------------------|
|--------------------------------------------------------------|
|--------------------------------------------------------------|
|--------------------------------------------------------------|

Gtr.2

  Bb       Fmaj7
|-6--|    |-0--|
|-6--|    |-1--|
|-7--| x6 |-2--| x6
|-8--|    |-3--|
|-8--|    |-3--|
|-6--|    |-0--|


Gtr.1

|------------------------12-----------12-----------------------------------|
|---14/12/14---14/12/14-----14/12/14------14/12----9h10p9--9--9h10p9---7---|
|------------------------------------------------------------------------9-|
|--------------------------------------------------------------------------|
|--------------------------------------------------------------------------|
|--------------------------------------------------------------------------|

Gtr.2

  Bb       Fmaj7
|-6--|     |-0--|
|-6--|     |-1--|
|-7--| x6  |-2--| x6
|-8--|     |-3--|
|-8--|     |-3--|
|-6--|     |-0--|

Verse:

Just continue to play:

Bb  Fmaj7  x4

Then pre-chorus:

(not 100% sure)

 Amaj      Ab        Fmaj7     Cmaj
|-5--|    |-4--|    |-0--|    |-3--|
|-5--|    |-4--|    |-1--|    |-5--|
|-6--| x6 |-5--| x6 |-2--| x6 |-5--| x6
|-7--|    |-6--|    |-3--|    |-5--|
|-7--|    |-6--|    |-3--|    |-3--|
|-5--|    |-4--|    |-0--|    |-3--|

Verse again:

Bb Fmaj7 x2

Pre-chorus again

Chorus:

 A#maj7                 Am11/C6add9 Aadd11
|--10----------10---------------8----5-----|
|--------11----------11---------8----6-----|
|-----10----10----10----10------9----7-----| x3
|------------------------------------------|
|------------------------------------------|
|------------------------------------------|

End on:

 Cmaj      E(with some variations)
|-3--|    |-0--|
|-5--|    |-0--|
|-5--| x6 |-1--| x8
|-5--|    |-2--|
|-3--|    |-2--|
|-3--|    |-0--|

I'll put the rest soon :) hope you like it and make sure you rate it ;).
Tap to rate this tab
# A B C D E F G H I J K L M N O P Q R S T U V W X Y Z