Song name
# A B C D E F G H I J K L M N O P Q R S T U V W X Y Z

Red Hot Chili Peppers - Magpies On Fire tab

A good b-side, no one tabbed it so I'm gonna tab it.

Intro:

Gtr.1-acoustic
Gtr.2-clean

Both guitars play the same thing.

  G         Gm       Eb               Db
|-3--3--3--3-3--3-3--6--6--6--6--6-6--4--4--4----------|
|-3--3--3--3-3--3-3--8--8--10-10-8-8--6--6--6--6-4-----|
|-4--4--4--4p3--3-3--8--8--8--8--8-8--6--6--6------6-5-|
|-5--5--5--5-5--5-5--8--8--8--8--8-8--6--6--6----------|
|-5--5--5--5-5--5-5--6--6--6--6--6-6--4--4--4----------|
|-3--3--3--3-3--3-3--6--6--6--6--6-6--4--4--4----------|

Verse:Both guitars

  F    C    Dm
|-1-1-------1-1-1-1-1h3-3p1-|
|-1-1--1-1--3-3-3-3-3---3---|
|-2-2--0-0--2-2-2-2-2---2---|
|-3-3--2-2--0-0-0-0-0---0---|
|-3-3--3-3------------------|
|-1-1-----------------------|

 F    C    Dm
|-1-1-------1-1-1-1-1h3-3p1-|
|-1-1--1-1--3-3-3-3-3---3---|
|-2-2--0-0--2-2-2-2-2---2---|
|-3-3--2-2--0-0-0-0-0---0---|
|-3-3--3-3------------------|
|-1-1-----------------------|

 F    C    Dm            Bb
|-1-1-------1-1-1-1-1-1--6-6-6-6--|
|-1-1--1-1--3-3-3-3-3-3--6-6-6-6--|
|-2-2--0-0--2-2-2-2-2-2--7-7-7-7--|
|-3-3--2-2--0-0-0-0-0-0--8-8-8-8--|
|-3-3--3-3---------------8-8-8-8--|
|-1-1--------------------6-6-6-6--|

Then again:

 F    C    Dm
|-1-1-------1-1-1-1-1h3-3p1-|
|-1-1--1-1--3-3-3-3-3---3---|
|-2-2--0-0--2-2-2-2-2---2---|
|-3-3--2-2--0-0-0-0-0---0---|
|-3-3--3-3------------------|
|-1-1-----------------------|

 F    C    Dm
|-1-1-------1-1-1-1-1h3-3p1-|
|-1-1--1-1--3-3-3-3-3---3---|
|-2-2--0-0--2-2-2-2-2---2---|
|-3-3--2-2--0-0-0-0-0---0---|
|-3-3--3-3------------------|
|-1-1-----------------------|

 F    C    Dm            Bb
|-1-1-------1-1-1-1-1-1--6-6-6-6--|
|-1-1--1-1--3-3-3-3-3-3--6-6-6-6--|
|-2-2--0-0--2-2-2-2-2-2--7-7-7-7--|
|-3-3--2-2--0-0-0-0-0-0--8-8-8-8--|
|-3-3--3-3---------------8-8-8-8--|
|-1-1--------------------6-6-6-6--|

Pre-chorus:

Gtr.1
  Am               Eb       Db
|-5-5-5-5-5-5-5-5--6-6-6-6--4-4-4--|
|-5-5-5-5-5-5-5-5--8-8-8-8--6-6-6--|
|-5-5-5-5-5-5-5-5--8-8-8-8--6-6-6--|
|-7-7-7-7-7-7-7-7--8-8-8-8--6-6-6--|
|-7-7-7-7-7-7-7-7--6-6-6-6--4-4-4--|
|-5-5-5-5-5-5-5-5--6-6-6-6--4-4-4--|

Gtr.2

|-----------------------------------|
|--8b~-8--8b~-8--8--8b--8--6--------|
|----------------------------6~-----|
|-----------------------------------|
|-----------------------------------|
|-----------------------------------|

Chorus:both guitars

  F   Eb Bb
|-8---6--6---|
|-10--8--6---|
|-10--8--7---|
|-10--8--8---|
|-8---6--8---|
|-8---6--6---|

The rest is on the way,hope it helps.
Tap to rate this tab
# A B C D E F G H I J K L M N O P Q R S T U V W X Y Z