Song name
# A B C D E F G H I J K L M N O P Q R S T U V W X Y Z

Red Hot Chili Peppers - Never Is A Long Time tab

RHCP-Never Is A Long Time

Intro:

e|-8--8--8--8--8---|
B|-10-10-10-10-10--|
G|-10-10-10-10-10--|
D|-10-10-10-10-10--|
A|-----------------|
E|-----------------|

Verse 1:

|-1---------5-------3-------1-------6--1---------5-------3---------5-5--|
|-1---------6-------5-------1-------6--1---------6-------5---------6-6--|
|-2---------7-------3-------2-------7--2---------7-------3---------7-7--|
|-3---------7-------5-------3-------8--3---------7-------5---------7-7--|
|-3---------5-------3-------3-------8--3---------5-------3---------5-5--|
|-1--1-3-5--5--5-3--3--3-1--1--1/6--6--1--1-3-5--5--5-3--3--3/5-5--5-5--|

Then:

|----6-----4-----4------6--|
|----6-----6-----4------6--|
|----7-----6-----5------7--|
|----8-----6-----6------8--|
|----8--4--4-----6------8--|
|-6--6--------4--4--4-6-6--|

|------2-2--4-4--------|
|------2-2--6-6--------|
|------3-3--6-6--------|
|------4-4--6-6--------|
|------4-4--4-4-----2--|
|-6/2--2-2------2h4----|

Verse 2:

|-2---------6-------4-------2-------7--2---------6-------4---------6-6--|
|-2---------7-------6-------2-------7--2---------7-------6---------7-7--|
|-3---------8-------4-------3-------8--3---------8-------4---------8-8--|
|-4---------8-------6-------4-------9--4---------8-------6---------8-8--|
|-4--2-4-6--6--6-4--4-------4-------9--4--2-4-6--6--6-4--4--4/6-6--6-6--|
|-2---------6-------4--4-2--2--2/7--7--2---------6-------4---------6-6--|

Pre-chorus:

|----7-----5--3----3-2--|
|----7-----7--3----3-2--|
|----8-----7--4----4-2--|
|----9-----7--5----5-4--|
|----9--5--5--5----5-4--|
|-7--7--------3----3-2--|

Chorus:

|-2--5--3--3--|
|-3--7--3--3--|
|-4--7--4--4--|x3
|-4--7--5--5--|
|-2--5--5--5--|
|-2-----3--3--|

|-5--3--|
|-5--3--|
|-6--4--|x3
|-7--5--|
|-7--5--|
|-5--3--|

There is a drop of some kind,
I think it's at the 19th fret of the E string,
something ike this:

|-------|
|-------|
|-------|
|-------|
|-------|
|-19/0--|

Verse 1 again:

|-1---------5-------3-------1-------6--1---------5-------3---------5-5--|
|-1---------6-------5-------1-------6--1---------6-------5---------6-6--|
|-2---------7-------3-------2-------7--2---------7-------3---------7-7--|
|-3---------7-------5-------3-------8--3---------7-------5---------7-7--|
|-3---------5-------3-------3-------8--3---------5-------3---------5-5--|
|-1--1-3-5--5--5-3--3--3-1--1--1/6--6--1--1-3-5--5--5-3--3--3/5-5--5-5--|

Then:

|----6-----4-----4------6--|
|----6-----6-----4------6--|
|----7-----6-----5------7--|
|----8-----6-----6------8--|
|----8--4--4-----6------8--|
|-6--6--------4--4--4-6-6--|

|------2-2--4-4--------|
|------2-2--6-6--------|
|------3-3--6-6--------|
|------4-4--6-6--------|
|------4-4--4-4-----2--|
|-6/2--2-2------2h4----|

Verse 2 again:

|-2---------6-------4-------2-------7--2---------6-------4---------6-6--|
|-2---------7-------6-------2-------7--2---------7-------6---------7-7--|
|-3---------8-------4-------3-------8--3---------8-------4---------8-8--|
|-4---------8-------6-------4-------9--4---------8-------6---------8-8--|
|-4--2-4-6--6--6-4--4-------4-------9--4--2-4-6--6--6-4--4--4/6-6--6-6--|
|-2---------6-------4--4-2--2--2/7--7--2---------6-------4---------6-6--|

Pre-chorus:

|-7-3--|
|-7-3--|
|-8-4--|
|-9-5--|
|-9-5--|
|-7-3--|

Chorus again:

|-2--5--3--3--|
|-3--7--3--3--|
|-4--7--4--4--|x3
|-4--7--5--5--|
|-2--5--5--5--|
|-2-----3--3--|

|-5--3--|
|-5--3--|
|-6--4--|x9
|-7--5--|
|-7--5--|
|-5--3--|

Breakdown:

Gtr.1

|-2--5--3--3--|
|-3--7--3--3--|
|-4--7--4--4--|x7
|-4--7--5--5--|
|-2--5--5--5--|
|-2-----3--3--|

Gtr.2

|-----------------------------|
|-----------------------------|
|-9br-9br---9b-9b--9br9p7-----|x3
|------------------------9p7--|
|-----------------------------|
|-----------------------------|

|---------------------------|
|---------------------------|
|-9br-----9br-9b-9br9p7-----|
|-----9br--------------9p7--|
|---------------------------|
|---------------------------|

|-----------------------------|
|-----------------------------|
|-9br-9br---9b-9b--9br9p7-----|
|------------------------9p7--|
|-----------------------------|
|-----------------------------|

|-----------------------------------|
|-----------------------------------|
|-9br9p7----9br9p7-----9b-9b-9br9p7-|
|-------9p7-------9p7---------------|
|-----------------------------------|
|-----------------------------------|

Not sure about this last part:

|-----------------------|
|-----------------------|
|-9b----------9b----9b--|
|----9b--7h9-----9b-----|
|-----------------------|
|-----------------------|

End:

Gtr.1

|-2--5--3--|
|-3--7--3--|
|-4--7--4--|
|-4--7--5--|
|-2--5--5--|
|-2-----3--|

Gtr.2

|---------|
|---------|
|-9b-9----|
|------9--|
|---------|
|---------|

That's it.Enjoy.
Tap to rate this tab
# A B C D E F G H I J K L M N O P Q R S T U V W X Y Z