Song name
# A B C D E F G H I J K L M N O P Q R S T U V W X Y Z

Red Hot Chili Peppers - Police Station tab

Song: Police Station
Artist: Red Hot Chili Peppers
Transcribed by: R. Bryan E.

Here is Flea's piano solo for Police Station, transcribed to guitar. Enjoy!

e |----88-8-7-7-5--|----88-8-7-7-5--|----77-7-5-5-3--|----77-7-5-5-3-0|----88-8-7-7-5--|
B |----------------|----------------|----------------|----------------|----------------|
G |----------------|----------------|----------------|----------------|----------------|
D |----------------|----------------|----------------|----------------|----------------|
A |----------------|----------------|----------------|----------------|----------------|
E |----------------|----------------|----------------|----------------|----------------|

e |----88-8-7-7-5--|3---3---3---5---|7-75-5----------|----------------||
B |----------------|----------------|------8-87-75-5-|----------------||
G |----------------|----------------|---------------7|-7--------------||
D |----------------|----------------|----------------|--7-75--4-------||
A |----------------|----------------|----------------|----------------||
E |----------------|----------------|----------------|----------------||
Tap to rate this tab
# A B C D E F G H I J K L M N O P Q R S T U V W X Y Z