Song name
# A B C D E F G H I J K L M N O P Q R S T U V W X Y Z

Red Hot Chili Peppers - Californication tab

I learned this by ear so it may be a bit different from the original




e |-----5---9-----2b-2----5----9----2b-2------2-2-2-2-0-----------0-4-2--0-------|
B |-------------------------------------------------------2-2--0-2----------2----|
G |------------------------------------------------------------------------------|
D |------------------------------------------------------------------------------|
A |------------------------------------------------------------------------------|
E |------------------------------------------------------------------------------|



e |-----5-9-12-14-----5-9-12-16-14----17-16-14-12-14-12---12-----------------12------|
B |-------------------------------------------------------14---14---14--14--14--14---|
G |----------------------------------------------------------------------------------|
D |----------------------------------------------------------------------------------|
A |----------------------------------------------------------------------------------|
E |----------------------------------------------------------------------------------|



e |-16-14-12--12---------12-10-9-5---|
B |---------14--14-12--10------------|
G |----------------------------------|
D |----------------------------------|
A |----------------------------------|
E |----------------------------------|
Tap to rate this tab
 
# A B C D E F G H I J K L M N O P Q R S T U V W X Y Z