Song name
# A B C D E F G H I J K L M N O P Q R S T U V W X Y Z

Red Hot Chili Peppers - Sexy Mexican Maid Live tab

Song: Sexy Mexican Maid (Live Tab)
Artist: Red Hot Chili Peppers
Album: Motherīs Milk

Riff:
|-----------x------1212-------------x-------151515--|
|-----------x-1212-1212-------------x-1212--121212--|
|-----------x-1212-1212-------------x-1212--121212--|
|-------------1212----------75---57---1414----------|
|---75---57---------------0----7--------------------|
|--0----7-------------------------------------------|


Chorus:
|----------------|------|--5x-5--------7x-7---|
|----------------|------|--5x-5--------7x-7---|
|--7br-7--5---5--|--x8--|--6x-6--------8x-8---|
|----------7---7-|------|--5x-5--------7x-7---|
|----------------|------|--7x-7--------9x-9---|
|----------------|------|--5x-5--------7x-7---|


Solo:
|-----------------------------------------------|
|---------------------------------------5-5555--|
|---------------------------------------6-6666--|
|-----------------------5~~-------------5-5555--|
|----7-5-7-5~~----7-5-7--------7-5-7-5--5-5555--|
|-----------------------------------------------|


|------------------------------------------|
|------------------------------------------|
|------------------------------------------|
|------------------5~~---------------------|
|--7-5-7-5~~--7-5-7-----7-5-7-5------------|
|--------------------------------7-6-5--3~-|

this part is very improvised.
use distortion and wah wah:
|-------------------------------------------------------15b~~~~~~--|
|-----------------------------------15b~~~~~~~~~~17b~~~~-----------|
|--7h9p7h9p7h9p7h9p7h9p7h9p----------------------------------------|
|---------------------------10br~~~--------------------------------|
|------------------------------------------------------------------|
|------------------------------------------------------------------|

b = bend
~ = vibrato
x = muted rhythm
r = bend release

David-Argentina
Tap to rate this tab
 
# A B C D E F G H I J K L M N O P Q R S T U V W X Y Z