Song name
# A B C D E F G H I J K L M N O P Q R S T U V W X Y Z

Red Hot Chili Peppers - Hometown Gypsy tab

RHCP- Hometown Gypsy

A western style song,but I like it

Gtr.1-acoustic
Gtr.2-clean with with wah-wah

Intro:

Gtr.1

e|-5--5-5-5-5--5-5-5-5--5-5-5-5--5-5-5--|
B|-6--5-6-6-6--6-6-6-6--6-6-6-6--5-6-5--|
G|-7--7-7-7-7--7-7-7-7--7-7-7-7--7-7-7--|
D|-7--7-7-7-7--7-7-7-7--7-7-7-7--7-7-7--|
A|-5--5-5-5-5--5-5-5-5--5-5-5-5--5-5-5--|
E|--------------------------------------|

Verse:

Gtr.1

|-5--5-5-5-5--5-5-5-5--5-5-5-5--5-5-5--|
|-6--5-6-6-6--6-6-6-6--6-6-6-6--5-6-5--|
|-7--7-7-7-7--7-7-7-7--7-7-7-7--7-7-7--|
|-7--7-7-7-7--7-7-7-7--7-7-7-7--7-7-7--|
|-5--5-5-5-5--5-5-5-5--5-5-5-5--5-5-5--|
|--------------------------------------|

Prechorus:

Gtr.1

|-3--3-3-3-3--1--1-1-1-1--0--0-0-0-0--0--0-0-0-0--|
|-5--5-5-5-5--3--3-3-3-3--1--1-1-1-1--1--1-1-1-1--|
|-5--5-5-5-5--3--3-3-3-3--2--2-2-2-2--2--2-2-2-2--|
|-5--5-5-5-5--3--3-3-3-3--2--2-2-2-2--2--2-2-2-2--|
|-3--3-3-3-3--1--1-1-1-1--0--0-0-0-0--0--0-0-0-0--|
|-------------------------------------------------|

|-3--3-3-3-3--3--3-3-3-3--3--3-3-3-3--3--3-3-3-3--|
|-5--5-5-5-5--5--5-5-5-5--5--5-5-5-5--5--5-5-5-5--|
|-5--5-5-5-5--5--5-5-5-5--5--5-5-5-5--5--5-5-5-5--|
|-5--5-5-5-5--5--5-5-5-5--5--5-5-5-5--5--5-5-5-5--|
|-3--3-3-3-3--3--3-3-3-3--3--3-3-3-3--3--3-3-3-3--|
|-------------------------------------------------|

Back to verse:

Gtr.1

|-5--5-5-5-5--5-5-5-5--5-5-5-5--5-5-5--|
|-6--5-6-6-6--6-6-6-6--6-6-6-6--5-6-5--|
|-7--7-7-7-7--7-7-7-7--7-7-7-7--7-7-7--|
|-7--7-7-7-7--7-7-7-7--7-7-7-7--7-7-7--|
|-5--5-5-5-5--5-5-5-5--5-5-5-5--5-5-5--|
|--------------------------------------|

|-5--5-5-5-5--5-5-5-5--5-5-5-5--5-5-5--|
|-6--5-6-6-6--6-6-6-6--6-6-6-6--5-6-5--|
|-7--7-7-7-7--7-7-7-7--7-7-7-7--7-7-7--|
|-7--7-7-7-7--7-7-7-7--7-7-7-7--7-7-7--|
|-5--5-5-5-5--5-5-5-5--5-5-5-5--5-5-5--|
|--------------------------------------|

Prechorus:

Gtr.1

|-3--3-3-3-3--1--1-1-1-1--0--0-0-0-0--0--0-0-0-0--|
|-5--5-5-5-5--3--3-3-3-3--1--1-1-1-1--1--1-1-1-1--|
|-5--5-5-5-5--3--3-3-3-3--2--2-2-2-2--2--2-2-2-2--|
|-5--5-5-5-5--3--3-3-3-3--2--2-2-2-2--2--2-2-2-2--|
|-3--3-3-3-3--1--1-1-1-1--0--0-0-0-0--0--0-0-0-0--|
|-------------------------------------------------|

|-3--3-3-3-3--3--3-3-3-3--3--3-3-3-3--3--3-3-3-3--|
|-5--5-5-5-5--5--5-5-5-5--5--5-5-5-5--5--5-5-5-5--|
|-5--5-5-5-5--5--5-5-5-5--5--5-5-5-5--5--5-5-5-5--|
|-5--5-5-5-5--5--5-5-5-5--5--5-5-5-5--5--5-5-5-5--|
|-3--3-3-3-3--3--3-3-3-3--3--3-3-3-3--3--3-3-3-3--|
|-------------------------------------------------|

Chorus:

Gtr.1

|-5-5--5-5-5-5--5-5-5--3--3-3-3-3--3-3-3-3--|
|-6-6--6-6-6-6--6-6-6--5--5-5-5-5--5-5-5-5--|
|-7-7--7-7-7-7--7-7-7--5--5-5-5-5--5-5-5-5--|
|-7-7--7-7-7-7--7-7-7--5--5-5-5-5--5-5-5-5--|
|-5-5--5-5-5-5--5-5-5--3--3-3-3-3--3-3-3-3--|
|-------------------------------------------|

|-3-3-3-3--3-3-3-3--3--3-3-3-3--3-3-3-3--|
|-5-5-5-5--5-5-5-5--3--3-3-3-3--3-3-3-3--|
|-5-5-5-5--5-5-5-5--4--4-4-4-4--4-4-4-4--|
|-5-5-5-5--5-5-5-5--5--5-5-5-5--5-5-5-5--|
|-3-3-3-3--3-3-3-3--5--5-5-5-5--5-5-5-5--|
|-------------------3--3-3-3-3--3-3-3-3--|

|-5-5--5-5-5-5--5-5-5--3--3-3-3-3--3-3-3-3--|
|-6-6--6-6-6-6--6-6-6--5--5-5-5-5--5-5-5-5--|
|-7-7--7-7-7-7--7-7-7--5--5-5-5-5--5-5-5-5--|
|-7-7--7-7-7-7--7-7-7--5--5-5-5-5--5-5-5-5--|
|-5-5--5-5-5-5--5-5-5--3--3-3-3-3--3-3-3-3--|
|-------------------------------------------|

|-3-3-3-3--3-3-3-3--3--3-3-3-3--3-3-3-3--|
|-5-5-5-5--5-5-5-5--3--3-3-3-3--3-3-3-3--|
|-5-5-5-5--5-5-5-5--4--4-4-4-4--4-4-4-4--|
|-5-5-5-5--5-5-5-5--5--5-5-5-5--5-5-5-5--|
|-3-3-3-3--3-3-3-3--5--5-5-5-5--5-5-5-5--|
|-------------------3--3-3-3-3--3-3-3-3--|

Back to verse:

Gtr.1

|-5--5-5-5-5--5-5-5-5--5-5-5-5--5-5-5--|
|-6--5-6-6-6--6-6-6-6--6-6-6-6--5-6-5--|
|-7--7-7-7-7--7-7-7-7--7-7-7-7--7-7-7--|
|-7--7-7-7-7--7-7-7-7--7-7-7-7--7-7-7--|
|-5--5-5-5-5--5-5-5-5--5-5-5-5--5-5-5--|
|--------------------------------------|

|-5--5-5-5-5--5-5-5-5--5-5-5-5--5-5-5--|
|-6--5-6-6-6--6-6-6-6--6-6-6-6--5-6-5--|
|-7--7-7-7-7--7-7-7-7--7-7-7-7--7-7-7--|
|-7--7-7-7-7--7-7-7-7--7-7-7-7--7-7-7--|
|-5--5-5-5-5--5-5-5-5--5-5-5-5--5-5-5--|
|--------------------------------------|

Prechorus:

Gtr.1

|-3--3-3-3-3--1--1-1-1-1--0--0-0-0-0--0--0-0-0-0--|
|-5--5-5-5-5--3--3-3-3-3--1--1-1-1-1--1--1-1-1-1--|
|-5--5-5-5-5--3--3-3-3-3--2--2-2-2-2--2--2-2-2-2--|
|-5--5-5-5-5--3--3-3-3-3--2--2-2-2-2--2--2-2-2-2--|
|-3--3-3-3-3--1--1-1-1-1--0--0-0-0-0--0--0-0-0-0--|
|-------------------------------------------------|

|-3--3-3-3-3--3--3-3-3-3--3--3-3-3-3--3--3-3-3-3--|
|-5--5-5-5-5--5--5-5-5-5--5--5-5-5-5--5--5-5-5-5--|
|-5--5-5-5-5--5--5-5-5-5--5--5-5-5-5--5--5-5-5-5--|
|-5--5-5-5-5--5--5-5-5-5--5--5-5-5-5--5--5-5-5-5--|
|-3--3-3-3-3--3--3-3-3-3--3--3-3-3-3--3--3-3-3-3--|
|-------------------------------------------------|

Verse:

Gtr.1

|-5--5-5-5-5--5-5-5-5--5-5-5-5--5-5-5--|
|-6--5-6-6-6--6-6-6-6--6-6-6-6--5-6-5--|
|-7--7-7-7-7--7-7-7-7--7-7-7-7--7-7-7--|
|-7--7-7-7-7--7-7-7-7--7-7-7-7--7-7-7--|
|-5--5-5-5-5--5-5-5-5--5-5-5-5--5-5-5--|
|--------------------------------------|

Prechorus:

Gtr.1

|-3--3-3-3-3--1--1-1-1-1--0--0-0-0-0--0--0-0-0-0--|
|-5--5-5-5-5--3--3-3-3-3--1--1-1-1-1--1--1-1-1-1--|
|-5--5-5-5-5--3--3-3-3-3--2--2-2-2-2--2--2-2-2-2--|
|-5--5-5-5-5--3--3-3-3-3--2--2-2-2-2--2--2-2-2-2--|
|-3--3-3-3-3--1--1-1-1-1--0--0-0-0-0--0--0-0-0-0--|
|-------------------------------------------------|

|-3--3-3-3-3--3--3-3-3-3--3--3-3-3-3--3--3-3-3-3--|
|-5--5-5-5-5--5--5-5-5-5--5--5-5-5-5--5--5-5-5-5--|
|-5--5-5-5-5--5--5-5-5-5--5--5-5-5-5--5--5-5-5-5--|
|-5--5-5-5-5--5--5-5-5-5--5--5-5-5-5--5--5-5-5-5--|
|-3--3-3-3-3--3--3-3-3-3--3--3-3-3-3--3--3-3-3-3--|
|-------------------------------------------------|

Chorus:

Gtr.1

|-5-5--5-5-5-5--5-5-5--3--3-3-3-3--3-3-3-3--|
|-6-6--6-6-6-6--6-6-6--5--5-5-5-5--5-5-5-5--|
|-7-7--7-7-7-7--7-7-7--5--5-5-5-5--5-5-5-5--|
|-7-7--7-7-7-7--7-7-7--5--5-5-5-5--5-5-5-5--|
|-5-5--5-5-5-5--5-5-5--3--3-3-3-3--3-3-3-3--|
|-------------------------------------------|

|-3-3-3-3--3-3-3-3--3--3-3-3-3--3-3-3-3--|
|-5-5-5-5--5-5-5-5--3--3-3-3-3--3-3-3-3--|
|-5-5-5-5--5-5-5-5--4--4-4-4-4--4-4-4-4--|
|-5-5-5-5--5-5-5-5--5--5-5-5-5--5-5-5-5--|
|-3-3-3-3--3-3-3-3--5--5-5-5-5--5-5-5-5--|
|-------------------3--3-3-3-3--3-3-3-3--|

|-5-5--5-5-5-5--5-5-5--3--3-3-3-3--3-3-3-3--|
|-6-6--6-6-6-6--6-6-6--5--5-5-5-5--5-5-5-5--|
|-7-7--7-7-7-7--7-7-7--5--5-5-5-5--5-5-5-5--|
|-7-7--7-7-7-7--7-7-7--5--5-5-5-5--5-5-5-5--|
|-5-5--5-5-5-5--5-5-5--3--3-3-3-3--3-3-3-3--|
|-------------------------------------------|

|-3-3-3-3--3-3-3-3--3--3-3-3-3--3-3-3-3--|
|-5-5-5-5--5-5-5-5--3--3-3-3-3--3-3-3-3--|
|-5-5-5-5--5-5-5-5--4--4-4-4-4--4-4-4-4--|
|-5-5-5-5--5-5-5-5--5--5-5-5-5--5-5-5-5--|
|-3-3-3-3--3-3-3-3--5--5-5-5-5--5-5-5-5--|
|-------------------3--3-3-3-3--3-3-3-3--|

|-5-5--5-5-5-5--5-5-5--3--3-3-3-3--3-3-3-3--|
|-6-6--6-6-6-6--6-6-6--5--5-5-5-5--5-5-5-5--|
|-7-7--7-7-7-7--7-7-7--5--5-5-5-5--5-5-5-5--|
|-7-7--7-7-7-7--7-7-7--5--5-5-5-5--5-5-5-5--|
|-5-5--5-5-5-5--5-5-5--3--3-3-3-3--3-3-3-3--|
|-------------------------------------------|

|-3-3-3-3--3-3-3-3--3--3-3-3-3--3-3-3-3--|
|-5-5-5-5--5-5-5-5--3--3-3-3-3--3-3-3-3--|
|-5-5-5-5--5-5-5-5--4--4-4-4-4--4-4-4-4--|
|-5-5-5-5--5-5-5-5--5--5-5-5-5--5-5-5-5--|
|-3-3-3-3--3-3-3-3--5--5-5-5-5--5-5-5-5--|
|-------------------3--3-3-3-3--3-3-3-3--|


Gtr.2

|----------------------------------------------|
|----------------------------------------------|
|-------------------------------------12-10-9--|
|-10h12-12-xx-xx-10-xx-xx-10-xx-xx-12----------|
|----------------------------------------------|
|----------------------------------------------|

|----------------------------------------------|
|----------------------------------------------|
|-------------------------------------12-10-9--|
|-10h12-12-xx-xx-10-xx-xx-10-xx-xx-12----------|
|----------------------------------------------|
|----------------------------------------------|

|----------------------------------------------|
|----------------------------------------------|
|-------------------------------------12-10-9--|
|-10h12-12-xx-xx-10-xx-xx-10-xx-xx-12----------|
|----------------------------------------------|
|----------------------------------------------|

Bridge:

Gtr.2

|-3~--5~--5~--5~--3~--5~--5~-------------------|
|-3~--5~--6~--6~--3~--5~--6~--5-6--------------|
|-3~--6~--7~--7~--3~--6~--7~--------------5-7--|
|-5~--7~--7~--7~--5~--7~--7~------7-5-5h7------|
|-5~--7~--5~--5~--5~--7~--5~-------------------|
|-3~--5~----------3~--5~-----------------------|

Back to verse:

Gtr.1


|-5--5-5-5-5--5-5-5-5--5-5-5-5--5-5-5--|
|-6--5-6-6-6--6-6-6-6--6-6-6-6--5-6-5--|
|-7--7-7-7-7--7-7-7-7--7-7-7-7--7-7-7--|
|-7--7-7-7-7--7-7-7-7--7-7-7-7--7-7-7--|
|-5--5-5-5-5--5-5-5-5--5-5-5-5--5-5-5--|
|--------------------------------------|

Prechorus:

Gtr.1

|-3--3-3-3-3--1--1-1-1-1--0--0-0-0-0--0--0-0-0-0--|
|-5--5-5-5-5--3--3-3-3-3--1--1-1-1-1--1--1-1-1-1--|
|-5--5-5-5-5--3--3-3-3-3--2--2-2-2-2--2--2-2-2-2--|
|-5--5-5-5-5--3--3-3-3-3--2--2-2-2-2--2--2-2-2-2--|
|-3--3-3-3-3--1--1-1-1-1--0--0-0-0-0--0--0-0-0-0--|
|-------------------------------------------------|

|-3--3-3-3-3--3--3-3-3-3--3--3-3-3-3--3--3-3-3-3--|
|-5--5-5-5-5--5--5-5-5-5--5--5-5-5-5--5--5-5-5-5--|
|-5--5-5-5-5--5--5-5-5-5--5--5-5-5-5--5--5-5-5-5--|
|-5--5-5-5-5--5--5-5-5-5--5--5-5-5-5--5--5-5-5-5--|
|-3--3-3-3-3--3--3-3-3-3--3--3-3-3-3--3--3-3-3-3--|
|-------------------------------------------------|

Gtr.2

|--------------------------------------------------------------|
|----------------------------------------------------15b-15br--|
|-12b-12b-10-9~-----------------9-9b------------14b------------|
|----------------12b-10-12b--12-------12-12h14-----------------|
|--------------------------------------------------------------|
|--------------------------------------------------------------|

|----------------------------------|
|-----13---------------------------|
|-12b----12--12p10------12b-10-12--|
|------------------12--------------|
|----------------------------------|
|----------------------------------|

Chorus:

Gtr.1

|-5-5--5-5-5-5--5-5-5--3--3-3-3-3--3-3-3-3--|
|-6-6--6-6-6-6--6-6-6--5--5-5-5-5--5-5-5-5--|
|-7-7--7-7-7-7--7-7-7--5--5-5-5-5--5-5-5-5--|
|-7-7--7-7-7-7--7-7-7--5--5-5-5-5--5-5-5-5--|
|-5-5--5-5-5-5--5-5-5--3--3-3-3-3--3-3-3-3--|
|-------------------------------------------|

|-3-3-3-3--3-3-3-3--3--3-3-3-3--3-3-3-3--|
|-5-5-5-5--5-5-5-5--3--3-3-3-3--3-3-3-3--|
|-5-5-5-5--5-5-5-5--4--4-4-4-4--4-4-4-4--|
|-5-5-5-5--5-5-5-5--5--5-5-5-5--5-5-5-5--|
|-3-3-3-3--3-3-3-3--5--5-5-5-5--5-5-5-5--|
|-------------------3--3-3-3-3--3-3-3-3--|

|-5-5--5-5-5-5--5-5-5--3--3-3-3-3--3-3-3-3--|
|-6-6--6-6-6-6--6-6-6--5--5-5-5-5--5-5-5-5--|
|-7-7--7-7-7-7--7-7-7--5--5-5-5-5--5-5-5-5--|
|-7-7--7-7-7-7--7-7-7--5--5-5-5-5--5-5-5-5--|
|-5-5--5-5-5-5--5-5-5--3--3-3-3-3--3-3-3-3--|
|-------------------------------------------|

|-3-3-3-3--3-3-3-3--3--3-3-3-3--3-3-3-3--|
|-5-5-5-5--5-5-5-5--3--3-3-3-3--3-3-3-3--|
|-5-5-5-5--5-5-5-5--4--4-4-4-4--4-4-4-4--|
|-5-5-5-5--5-5-5-5--5--5-5-5-5--5-5-5-5--|
|-3-3-3-3--3-3-3-3--5--5-5-5-5--5-5-5-5--|
|-------------------3--3-3-3-3--3-3-3-3--|

|-5-5--5-5-5-5--5-5-5--3--3-3-3-3--3-3-3-3--|
|-6-6--6-6-6-6--6-6-6--5--5-5-5-5--5-5-5-5--|
|-7-7--7-7-7-7--7-7-7--5--5-5-5-5--5-5-5-5--|
|-7-7--7-7-7-7--7-7-7--5--5-5-5-5--5-5-5-5--|
|-5-5--5-5-5-5--5-5-5--3--3-3-3-3--3-3-3-3--|
|-------------------------------------------|

|-3-3-3-3--3-3-3-3--3--3-3-3-3--3-3-3-3--|
|-5-5-5-5--5-5-5-5--3--3-3-3-3--3-3-3-3--|
|-5-5-5-5--5-5-5-5--4--4-4-4-4--4-4-4-4--|
|-5-5-5-5--5-5-5-5--5--5-5-5-5--5-5-5-5--|
|-3-3-3-3--3-3-3-3--5--5-5-5-5--5-5-5-5--|
|-------------------3--3-3-3-3--3-3-3-3--|

|-5-5--5-5-5-5--5-5-5--3--3-3-3-3--3-3-3-3--|
|-6-6--6-6-6-6--6-6-6--5--5-5-5-5--5-5-5-5--|
|-7-7--7-7-7-7--7-7-7--5--5-5-5-5--5-5-5-5--|
|-7-7--7-7-7-7--7-7-7--5--5-5-5-5--5-5-5-5--|
|-5-5--5-5-5-5--5-5-5--3--3-3-3-3--3-3-3-3--|
|-------------------------------------------|

|-3-3-3-3--3-3-3-3--3--3-3-3-3--3-3-3-3--|
|-5-5-5-5--5-5-5-5--3--3-3-3-3--3-3-3-3--|
|-5-5-5-5--5-5-5-5--4--4-4-4-4--4-4-4-4--|
|-5-5-5-5--5-5-5-5--5--5-5-5-5--5-5-5-5--|
|-3-3-3-3--3-3-3-3--5--5-5-5-5--5-5-5-5--|
|-------------------3--3-3-3-3--3-3-3-3--|

Gtr.2

|----------------------------------------------|
|----------------------------------------------|
|-------------------------------------12-10-9--|
|-10h12-12-xx-xx-10-xx-xx-10-xx-xx-12----------|
|----------------------------------------------|
|----------------------------------------------|

|----------------------------------------------|
|----------------------------------------------|
|-------------------------------------12-10-9--|
|-10h12-12-xx-xx-10-xx-xx-10-xx-xx-12----------|
|----------------------------------------------|
|----------------------------------------------|

|----------------------------------------------|
|----------------------------------------------|
|-------------------------------------12-10-9--|
|-10h12-12-xx-xx-10-xx-xx-10-xx-xx-12----------|
|----------------------------------------------|
|----------------------------------------------|

|----------------------------------------------|
|----------------------------------------------|
|-------------------------------------12-10-9--|
|-10h12-12-xx-xx-10-xx-xx-10-xx-xx-12----------|
|----------------------------------------------|
|----------------------------------------------|

Outro:

Gtr.1

|-5--5-5-5-5--5-5-5-5--5-5-5-5--5-5-5--|
|-6--5-6-6-6--6-6-6-6--6-6-6-6--5-6-5--|
|-7--7-7-7-7--7-7-7-7--7-7-7-7--7-7-7--|x2
|-7--7-7-7-7--7-7-7-7--7-7-7-7--7-7-7--|
|-5--5-5-5-5--5-5-5-5--5-5-5-5--5-5-5--|
|--------------------------------------|

Gtr.2

|---------------------------8---------|
|---------------------------8---------|
|-------------7~------------9---------|
|-------------7~------------10--12b~--|
|-------------5~----------------------|
|-------------5~----------------------|

|--------------------------------------------------------|
|--------------------------------------------------------|
|--------------------------------------------------------|
|-------------5br------------------------0h3--5b-5-------|
|-----------------3-3h5~---------0h3-3h5-----------3h5~--|
|----------------------------3h5-------------------------|

The end.
Tap to rate this tab
# A B C D E F G H I J K L M N O P Q R S T U V W X Y Z