Song name
# A B C D E F G H I J K L M N O P Q R S T U V W X Y Z

Red Hot Chili Peppers - How It Ends tab

RHCP-How It Ends

Wow,finally they released the 6 new b-sides.
They are all awesome and this is one of my favorites.

Gtr.1-clean
Gtr.2-light distortion


Intro:

Gtr.1

e|------7h10p7------7h10p7-----7h10p7------7h10p7-|
B|----8-----------8----------8-----------8--------|
G|--9-----------9----------9-----------9----------|x2
D|------------------------------------------------|
A|------------------------------------------------|
E|------------------------------------------------|

Verse:

Gtr.1

|------7h10p7------7h10p7-----7h10p7------7h10p7-|
|----8-----------8----------8-----------8--------|
|--9-----------9----------9-----------9----------|
|------------------------------------------------|
|------------------------------------------------|
|------------------------------------------------|

|------7h10p7------7h10p7-----7--7-7--7-7--7-----|
|----8-----------8----------8----7-7--7-7--7-----|
|--9-----------9----------9------7-7--7-7--7-----|
|--------------------------------9-9--9-9--9-----|
|--------------------------------9-9--9-9--9-----|
|------------------------------------------------|

Prechorus:

Gtr.1

|-5--5--5-5--4--3--3--3-3--3--3--3--3-3-3-|
|-7--7--7-7--6--5--5--5-5--5--4--4--4-4-4-|
|-7--7--7-7--6--5--5--5-5--5--5--5--5-5-5-|
|-7--7--7-7--6--5--5--5-5--5--5--5--5-5-5-|
|-5--5--5-5--4--3--3--3-3--3--3--3--3-3-3-|
|-----------------------------------------|

|-3--3-3-3--3-3-3--3-3-3--3-3-|
|-3--3-3-3--3-3-3--3-3-3--3-3-|
|-4--4-4-4--4-4-4--4-4-4--4-4-|
|-5--5-5-5--5-5-5--5-5-5--5-5-|
|-5--5-5-5--5-5-5--5-5-5--5-5-|
|-3--3-3-3--3-3-3--3-3-3--3-3-|

Back to verse:

Gtr.1

|------7h10p7------7h10p7-----7h10p7------7h10p7-|
|----8-----------8----------8-----------8--------|
|--9-----------9----------9-----------9----------|
|------------------------------------------------|
|------------------------------------------------|
|------------------------------------------------|

|------7h10p7------7h10p7-----7--7-7--7-7--7-------|
|----8-----------8----------8----7-7--7-7--7-------|
|--9-----------9----------9------7-7--7-7--7-------|
|--------------------------------9-9--9-9--9-------|
|--------------------------------9-9--9-9--9-------|
|--------------------------------------------------|

Prechorus:

Gtr.1

|-5--5--5-5--4--3--3--3-3--3--3--3--3-3-3-|
|-7--7--7-7--6--5--5--5-5--5--4--4--4-4-4-|
|-7--7--7-7--6--5--5--5-5--5--5--5--5-5-5-|
|-7--7--7-7--6--5--5--5-5--5--5--5--5-5-5-|
|-5--5--5-5--4--3--3--3-3--3--3--3--3-3-3-|
|-----------------------------------------|

|-3--3-3-3--3-3-3--3-3-3--3-3-|
|-3--3-3-3--3-3-3--3-3-3--3-3-|
|-4--4-4-4--4-4-4--4-4-4--4-4-|
|-5--5-5-5--5-5-5--5-5-5--5-5-|
|-5--5-5-5--5-5-5--5-5-5--5-5-|
|-3--3-3-3--3-3-3--3-3-3--3-3-|

Chorus:

Gtr.2

|--------------------------------|
|--------------------------------|
|---7-5---5-7-7-----7-5---5-7-7--|
|-2-7-5-7-5-7-7---2-7-5-7-5-7-7--|
|-2-5-3-7-3-5-5---2-5-3-7-3-5-5--|
|-0-----5---------0-----5--------|

Verse again:

Gtr.1

|------7h10p7------7h10p7-----7h10p7------7h10p7-|
|----8-----------8----------8-----------8--------|
|--9-----------9----------9-----------9----------|x2
|------------------------------------------------|
|------------------------------------------------|
|------------------------------------------------|

Gtr.2

|--------------------------------------x7x7~---|
|--------------------------------------x8x8~---|
|--------------------------------------x9x9~---|x2
|--------------------------------------x9x9~---|
|----------------------------------------------|
|----------------------------------------------|

Gtr.1

|------7h10p7------7h10p7-----7h10p7------7h10p7-|
|----8-----------8----------8-----------8--------|
|--9-----------9----------9-----------9----------|
|------------------------------------------------|
|------------------------------------------------|
|------------------------------------------------|

|------7h10p7------7h10p7-----7--7-7--7-7--7-----|
|----8-----------8----------8----7-7--7-7--7-----|
|--9-----------9----------9------7-7--7-7--7-----|
|--------------------------------9-9--9-9--9-----|
|--------------------------------9-9--9-9--9-----|
|------------------------------------------------|

Prechorus:

Gtr.1

|-5--5--5-5--4--3--3--3-3--3--3--3--3-3-3-|
|-7--7--7-7--6--5--5--5-5--5--4--4--4-4-4-|
|-7--7--7-7--6--5--5--5-5--5--5--5--5-5-5-|
|-7--7--7-7--6--5--5--5-5--5--5--5--5-5-5-|
|-5--5--5-5--4--3--3--3-3--3--3--3--3-3-3-|
|-----------------------------------------|

|-3--3-3-3--3-3-3--3-3-3--3-3-|
|-3--3-3-3--3-3-3--3-3-3--3-3-|
|-4--4-4-4--4-4-4--4-4-4--4-4-|
|-5--5-5-5--5-5-5--5-5-5--5-5-|
|-5--5-5-5--5-5-5--5-5-5--5-5-|
|-3--3-3-3--3-3-3--3-3-3--3-3-|

Verse again,but a little different:

Gtr.1

|-----7-10-7-----10-7-----10-7-----10-7-----|
|---8--------8--------8--------8--------8---|
|-9------------9--------9--------9--------9-|
|-------------------------------------------|
|-------------------------------------------|
|-------------------------------------------|

|--10-7-----10-7-----7-7--7-7--7--|
|-------8--------8---7-7--7-7--7--|
|---------9--------9-7-7--7-7--7--|
|--------------------9-9--9-9--9--|
|--------------------9-9--9-9--9--|
|---------------------------------|

Prechorus:

Gtr.1

|-5--5--5-5--4--3--3--3-3--3--3--3--3-3-3-|
|-7--7--7-7--6--5--5--5-5--5--4--4--4-4-4-|
|-7--7--7-7--6--5--5--5-5--5--5--5--5-5-5-|
|-7--7--7-7--6--5--5--5-5--5--5--5--5-5-5-|
|-5--5--5-5--4--3--3--3-3--3--3--3--3-3-3-|
|-----------------------------------------|

|-3--3-3-3--3-3-3--3-3-3--3-3-|
|-3--3-3-3--3-3-3--3-3-3--3-3-|
|-4--4-4-4--4-4-4--4-4-4--4-4-|
|-5--5-5-5--5-5-5--5-5-5--5-5-|
|-5--5-5-5--5-5-5--5-5-5--5-5-|
|-3--3-3-3--3-3-3--3-3-3--3-3-|

Chorus:

Gtr.2

|--------------------------------|
|--------------------------------|
|---7-5---5-7-7-----7-5---5-7-7--|
|-2-7-5-7-5-7-7---2-7-5-7-5-7-7--|
|-2-5-3-7-3-5-5---2-5-3-7-3-5-5--|
|-0-----5---------0-----5--------|

Then it continues:

|--------------------------|
|--------------------------|
|----7--4--------7--4------|
|-5--7--4--2--5--7--4-4-5--|
|-5--5--2--2--5--5--2-4-5--|
|-3--------0--3-------2-3--|

Solo:

Gtr.2

|---------------------------------------------------------|
|-9-9-9--8~---9-9-9--8--6~---9-9-9--8--6--9---------------|
|--------------------------------------------5~--5h7-5-4~-|
|---------------------------------------------------------|
|---------------------------------------------------------|
|---------------------------------------------------------|

|-16-16-16--15~--16-16-16--15--13~--19-19-19-20--15--13--11~-13br-10------|
|--------------------------------------------------------------------11hb-|
|-------------------------------------------------------------------------|
|-------------------------------------------------------------------------|
|-------------------------------------------------------------------------|
|-------------------------------------------------------------------------|

Back to verse:

Gtr.1

|------7h10p7------7h10p7-----7h10p7------7h10p7-|
|----8-----------8----------8-----------8--------|
|--9-----------9----------9-----------9----------|
|------------------------------------------------|
|------------------------------------------------|
|------------------------------------------------|

|------7h10p7------7h10p7-----7--7-7--7-7--7-----|
|----8-----------8----------8----7-7--7-7--7-----|
|--9-----------9----------9------7-7--7-7--7-----|
|--------------------------------9-9--9-9--9-----|
|--------------------------------9-9--9-9--9-----|
|------------------------------------------------|

Prechorus:

Gtr.1

|-5--5--5-5--4--3--3--3-3--3--3--3--3-3-3-|
|-7--7--7-7--6--5--5--5-5--5--4--4--4-4-4-|
|-7--7--7-7--6--5--5--5-5--5--5--5--5-5-5-|
|-7--7--7-7--6--5--5--5-5--5--5--5--5-5-5-|
|-5--5--5-5--4--3--3--3-3--3--3--3--3-3-3-|
|-----------------------------------------|

|-3--3-3-3--3-3-3--3-3-3--3-3-|
|-3--3-3-3--3-3-3--3-3-3--3-3-|
|-4--4-4-4--4-4-4--4-4-4--4-4-|
|-5--5-5-5--5-5-5--5-5-5--5-5-|
|-5--5-5-5--5-5-5--5-5-5--5-5-|
|-3--3-3-3--3-3-3--3-3-3--3-3-|

Chorus:

Gtr.2

|--------------------------------|
|--------------------------------|
|---7-5---5-7-7-----7-5---5-7-7--|
|-2-7-5-7-5-7-7---2-7-5-7-5-7-7--|
|-2-5-3-7-3-5-5---2-5-3-7-3-5-5--|
|-0-----5---------0-----5--------|

|----------------------------|
|----------------------------|
|----7--4--------7--4--------|
|-5--7--4--2--5--7--4--4--5--|
|-5--5--2--2--5--5--2--4--5--|
|-3--------0--3--------2--3--|

The end.I'm gonna put Hometown Gypsy and Brave From Afar
very soon and I hope you'll like it.
Tap to rate this tab
# A B C D E F G H I J K L M N O P Q R S T U V W X Y Z