Song name
# A B C D E F G H I J K L M N O P Q R S T U V W X Y Z

Red Hot Chili Peppers - Hanalei tab

-------------------------------------------------------------------------------
                                         Hanalei - Red Hot Chili Peppers
-------------------------------------------------------------------------------

Album: I'm With You Sessions
Tabbed by: Dimitris_RHCP
E-mail: mitsakoc7@gmail.com
Youtube Chanel: Mitsakoc_7

Tuning: Standard

Intro:

e|--6----4----4----1----|
B|--6----4----6----1----|
G|--7----5----6----2----|
D|--8----6----6----3----|
A|--8----6----4----3----|
E|--6----4---------1----|

Verse:

e|--6----7----1----6----4----2----1----|
B|--7----7----1----6----4----2----1----|
G|--8----8----2----7----5----3----2----| x2
D|--8----9----3----8----6----4----3----|
A|--6----9----3----8----6----4----3----|
E|-------7----4----6----4----2----4----|

Chorus:

e|--3----6----1----6----6----3----|
B|--5----6----1----8----8----5----|
G|--5----7----2----8----8----5----| x2
D|--5----8----3----8----8----5----|
A|--3----8----3----6----6----3----|
E|-------6----4-------------------|

Verse:

e|--6----7----1----6----4----2----1----|
B|--7----7----1----6----4----2----1----|
G|--8----8----2----7----5----3----2----| x2
D|--8----9----3----8----6----4----3----|
A|--6----9----3----8----6----4----3----|
E|-------7----4----6----4----2----4----|

Chorus:

e|--3----6----1----6----6----3----|
B|--5----6----1----8----8----5----|
G|--5----7----2----8----8----5----| x2
D|--5----8----3----8----8----5----|
A|--3----8----3----6----6----3----|
E|-------6----4-------------------|

Bridge (Only Dm) :

e|--5--|
B|--6--|
G|--7--|
D|--7--|
A|--5--|
E|-----|

Josh's part:

e|--5----6----5----6----1----1----|
B|--6----6----6----6----1----1----|
G|--7----7----7----7----2----2----|
D|--7----8----7----8----3----3----|
A|--5----8----5----8----3----3----|
E|-------6---------6----4----4----|

Chorus:

e|--3----6----1----6----6----3----|
B|--5----6----1----8----8----5----|
G|--5----7----2----8----8----5----| x2
D|--5----8----3----8----8----5----|
A|--3----8----3----6----6----3----|
E|-------6----4-------------------|

If you have any corrections, leave comment or send me e-mail. Thanks :)
Tap to rate this tab
 
# A B C D E F G H I J K L M N O P Q R S T U V W X Y Z