Song name
# A B C D E F G H I J K L M N O P Q R S T U V W X Y Z

Red Hot Chili Peppers - Minor Thing tab

U-up stroke
D-down stroke

Intro and Verse:
   F#m7                        C#m D             Dmaj7
   D   D  UD D DUD DUD D DUDUDUD   D   D  UD D DUD DUD D DUDUDUDUDU
e|-0---0--00-0-xx0-xx0-0-x00xxx9-|-------------xx9-xx9-9-99x7777777-|
B|-2---2--22-2-xx2-xx2-2-x22xxx9-|-7---7--77-7-xx7-xx7-7-77x7777777-|
G|-2---2--22-2-xx2-xx2-2-x22xxx9-|-7---7--77-7-xx7-xx7-7-77x7777777-|
D|-4---4--44-4-xx4-xx4-4-x44xxx--|-7---7--77-7----------------------|
A|-4---4--44-4-xx4-xx4-4-x44xxx--|-5---5--55-5----------------------|
E|-x---x--xx-x-xxx-xxx-x-xxxxxx--|----------------------------------|
   '   '   '   '   '   '   '   '   '   '   '   '   '   '   '   '

And then, after "he knows everything":
   A                E   Dmaj7
   D   D   U  D  DU D   D   D  U   D   D
e|------------------12--14--14-14--14--14-|
B|-14--14--14-14-xx-12--14--14-14--14--14-|
G|-14--14--14-14-xx-13--14--14-14--14--14-| x2
D|-14--14--14-14-xx-14--12--12-12--12--12-|
A|-0---0---0--0--xx-----------------------|
E|----------------------------------------|

"You got your big part":
    (just go U D repeatedly)
e|--14-14-14-14-14-14-14-14-14-14-14-14-14-14-14-14-14-14-14-14-14-14-14-14-17-17-17-17-19-19-19-19--|
B|--14-14-14-14-14-14-14-14-14-14-14-14-14-14-14-14-14-14-14-14-14-14-14-14-17-17-17-17-19-19-19-19--|
G|--14-14-14-14-14-14-14-14-14-14-14-14-14-14-14-14-14-14-14-14-14-14-14-14-16-16-16-16-18-18-18-18--|
D|---------------------------------------------------------------------------------------------------|
A|---------------------------------------------------------------------------------------------------|
E|---------------------------------------------------------------------------------------------------|
In the second time, add this, then repeat both lines again:

e|--14-14-14-14-14-14-14-14-14-14-14-14-14-14-14-14-14-14-14-14-14-14-14-14-17-17-17-17-16-16-16-16--|
B|--14-14-14-14-14-14-14-14-14-14-14-14-14-14-14-14-14-14-14-14-14-14-14-14-17-17-17-17-17-17-17-17--|
G|--14-14-14-14-14-14-14-14-14-14-14-14-14-14-14-14-14-14-14-14-14-14-14-14-16-16-16-16-16-16-16-16--|
D|---------------------------------------------------------------------------------------------------|
A|---------------------------------------------------------------------------------------------------|
E|---------------------------------------------------------------------------------------------------|


Solo:
e|-12b14------12--9--12--------------------------------------12-------------|
B|-----------------------------------------14-------------14----------------|
G|----------------------11b13--r11---11-11----13b14r13-11-------13b14r13-11-|
D|--------------------------------------------------------------------------|
A|--------------------------------------------------------------------------|
E|--------------------------------------------------------------------------|

e|--------------------------------------------------------------------------|
B|-14-----------------------------------------------------------------------|
G|----13b14r13-11-11/13-9-11------------------------------------------------|
D|---------------------------11-11------------------------------------------|
A|--------------------------------------------------------------------------|
E|--------------------------------------------------------------------------|


Outro (repeat twice):
                  (just strum this chord a lot after every phrase)
e|------------0----------16-16-16-16-16-16----------------0-----------------|
B|----------0----7-------14-14-14-14-14-14--------------0-------------------|
G|--4-----4--------6-----14-14-14-14-14-14-------4----4------6b7-6----------|
D|--------------------------------------------------------------------------|
A|--------------------------------------------------------------------------|
E|--------------------------------------------------------------------------|

e|------------0-------------------------------------------------------------|
B|----------0----7---------------5------------------------------------------|
G|--4-----4--------6-------4---------6b7---6--------------------------------|
D|--------------------------------------------------------------------------|
A|--------------------------------------------------------------------------|
E|--------------------------------------------------------------------------|

************************************

| /   slide up
| ~   vibrato
| +   harmonic
| x   Mute note
| b   Bend
| pb  Pre-bend
| br  Bend release
| pbr Pre-bend release
| brb Bend release bend

************************************
Tap to rate this tab
# A B C D E F G H I J K L M N O P Q R S T U V W X Y Z