Song name
# A B C D E F G H I J K L M N O P Q R S T U V W X Y Z

Red Hot Chili Peppers - Behind The Sun tab

-------------------------------------------------------------------------------
			      BEHIND THE SUN- Red Hot Chili Peppers
-------------------------------------------------------------------------------
Tabbed by: Xander Carrasquillo
E-mail:n/a

Tuning: Standard

e|---------------------------------------------------------------------------|
B|---------------------------------------------------------------------------|
G|----9h11---9---------------------------------------------------------------|
D|----0-(0)--0----11--9----------9h11---9------------------------------------|
A|------------------------12-----0-(0)--0----11--9---------------------------|
E|---------------------------------------------------12----------------------|

e|--------------------------------------------7-------------------------------|
B|--------------------------------------------0-------------------------------|
G|--------------------------------------------7-------------------------------|
D|--------------------------------------------0-------------------------------|
A|----9h11---9-9----7--------------5h7--------7-------------------------------|
E|----0-(0)--0-0----0----9--7--5h7-------0----0-------------------------------|

No one had the intro transcribed correctly. Here it is, spot on. You can piece together the remainder of the
song from all of the other tabs. All of those parts are correct for the most part. -X

************************************

| /   slide up
| \   slide down
| h   hammer-on
| p   pull-off
| ~   vibrato
| +   harmonic
| x   Mute note
| b   Bend
| pb  Pre-bend
| br  Bend release
| pbr Pre-bend release
| brb Bend release bend

************************************
Tap to rate this tab
# A B C D E F G H I J K L M N O P Q R S T U V W X Y Z