Song name
# A B C D E F G H I J K L M N O P Q R S T U V W X Y Z

Red Hot Chili Peppers - I Could Have Lied tab

Ok, it may be a little off and I would appreciate any corrections you guys can make but 
it sounds pretty good to me - Enjoy


e|----------------------------------------------------------------------------------------------|
B|------------------------------------------------------------------------------------------7---|
G|-------------------------11h12-11-11-11-11--11-9-11-11-9-11-12^12-11-7-7--9-7-9p7---7-9^--9^--|
D|-----------7-9^9-------9----------------------------------------------------------9-----------|
A|-----5-7/9-------10-10------------------------------------------------------------------------|
E|-5/7------------------------------------------------------------------------------------------|


e|----------------------------------|
B|-7-----7-------7------------------|
G|-9^--7---7--10---10--7--10--10p7--|
D|----------------------------------|
A|----------------------------------|
E|----------------------------------|

e|-------------------------------------------------------------------------------------------|
B|7h8p7---7-7-----------------8-7-7h8p7----------7-------------------------------------------|
G|------9-----7^------------------------7------7---7-----------------------------------------|
D|----------------9-7-9--9-9--------------9-9--------9-9--9-7-9---------------------12-14/16-|
A|----------------------------------------------------------------7/9/10--10-12/14-----------|
E|-------------------------------------------------------------------------------------------|

---------------15^--14-----------------------------|
------15--17^----------15--------------------------|
14h16----------------------14/9/7---7-9-7--9-7-9---|
---------------------------------------------------|
---------------------------------------------------|
---------------------------------------------------|
Tap to rate this tab
# A B C D E F G H I J K L M N O P Q R S T U V W X Y Z