Song name
# A B C D E F G H I J K L M N O P Q R S T U V W X Y Z

Red Hot Chili Peppers - Especially In Michigan tab

These are the main tabs to "Especially In Michigan" I didn't include the second guitars or
anything, but I hope this helps.
Chorus chords:
A: 777XXX
E: 222XXX
F#:444XXX
D: 000XXX or 121212XXX

INTRO:

e|-----------------------------------------|
B|-----------------------------------------|
G|-----------------------------------------|
D|--9h11-11-11-11-11-11-11-11-11-----------|
A|-----------------------------------------|
E|-----------------------------------------|

e|-----------------------------------------|
B|-----------------------------------------|
G|-------------------------9h11p9----------|
D|--9h11-11-11-11-11-11-11-----------------|
A|-----------------------------------------|
E|-----------------------------------------|

e|-----------------------------------------|
B|-----------------------------------------|
G|-----------------------------------------|
D|--9h11-11-11-11-11-11-11-11-11-----------|
A|-----------------------------------------|
E|-----------------------------------------|

e|-----------------------------------------|
B|---------------------------7-7h9p7--7----|
G|-------------------------9--------9---9--|
D|--9h11-11-11-11-11-11-11-----------------|
A|-----------------------------------------|
E|-----------------------------------------|


VERSE: (DISTORTION)

RIFF 1:
e|--------------------------|
B|----14-14----14-14----14--| (REPEAT UNTIL RIFF 2)
G|-11-------11-------11-----|
D|--------------------------|
A|--------------------------|
E|--------------------------|

RIFF 2:
E|-------14-------14-------14-------14-------14-|
B|----14-------14-------14-------14-------14----|
G|-11-------11-------11-------11-------11-------|
D|----------------------------------------------|
A|----------------------------------------------|
E|----------------------------------------------|


CHORUS 1: (CLEAN)
e|--------------------------------------------------------------------|
B|--14----14----14---12----12----12--14----14----14--15----15----15---|
G|----14----14-----------13----13--------14----14--------14----14-----|
D|------14----14--14---14----14--------16----16--------16----16-------|
A|--------------------------------------------------------------------|
E|--------------------------------------------------------------------|

e|---------------------------------------------------14----14----14----14----14-----|
B|--14----14----14---12----12----12--14----14----14------14----14----14----14----14-|
G|----14----14-----------13----13--------14----14------14----14----14----14----14---|
D|------14----14--14---14----14--------16----16-------------------------------------|
A|----------------------------------------------------------------------------------|
E|----------------------------------------------------------------------------------|

*ENTER INTO RIFF 1 OF VERSE*


CHORUS 2&3: (DISTORTION)

A, E, F#, D

  A         E         F#        D
e|X-X-X-X-X-X-X-X-X-X-X-X-X-X-X-X-X-X-X-X-|
B|X-X-X-X-X-X-X-X-X-X-X-X-X-X-X-X-X-X-X-X-|
G|X-X-X-X-X-X-X-X-X-X-X-X-X-X-X-X-X-X-X-X-|
D|7-7-7-7-7-2-2-2-2-2-4-4-4-4-4-0-0-0-0-0-|
A|7-7-7-7-7-2-2-2-2-2-4-4-4-4-4-0-0-0-0-0-|
E|7-7-7-7-7-2-2-2-2-2-4-4-4-4-4-0-0-0-0-0-|

  A         E         F#        D
e|X-X-X-X-X-X-X-X-X-X-X-X-X-X-X-X--X--X--X--X--|
B|X-X-X-X-X-X-X-X-X-X-X-X-X-X-X-X--X--X--X--X--|
G|X-X-X-X-X-X-X-X-X-X-X-X-X-X-X-X--X--X--X--X--|
D|7-7-7-7-7-2-2-2-2-2-4-4-4-4-4-12-12-12-12-12-|
A|7-7-7-7-7-2-2-2-2-2-4-4-4-4-4-12-12-12-12-12-|
E|7-7-7-7-7-2-2-2-2-2-4-4-4-4-4-12-12-12-12-12-|
Tap to rate this tab
 
# A B C D E F G H I J K L M N O P Q R S T U V W X Y Z