Guitaretab - guitar tabs
Song name
# A B C D E F G H I J K L M N O P Q R S T U V W X Y Z

Red Hot Chili Peppers - Throw Away Your Television tab

-------------------------------------------------------------------------------
  Throw Away Your Television Solo (Slane Castle DVD) - Red Hot Chili Peppers
-------------------------------------------------------------------------------

Alright I finally put together a tab for this mind-blowing solo since there was such a
demand for it on my youtube video (blastooo). I put some helpful notes here and there and
added the pick direction for the faster licks. Leave good feedback and check out my video.
Practice hard, study the DVD 10 times each day, add some overdrive & reverb to get
that Slane Castle sound, and rip away!


Part I:

For Part I of this solo, just strum constantly and try to attack all the muted bottom
Single pick only the fast licks. On the bends, your fingers will lift up and mute the top
allowing for more dirty attack strumming!

e|---x---x---x--------x---x---x----------------------------------------------|
B|---x---x---x--------x---x---x---5---5--------------------------------------|
G|---x---x---x--------x---x---x---7b9-7b9------------------------------------|
D|---3---5---7--------3---5---7----------------------------------------------|
A|---3---5---7--------3---5---7----------------------------------------------|
E|---1---3---5--------1---3---5----------------------------------------------|

e|---------------------------------------------------------------------------|
B|---10----10------------12----12----13------17----17----17----17----17------|
G|---12b14-12b14---------14b16-14b16-15b17---19b21-19b21-19b21-19b21-19b21---|
D|---------------------------------------------------------------------------|
A|---------------------------------------------------------------------------|
E|---------------------------------------------------------------------------|

e|-0-17----17--------0-15----15--------0-17----17----17----------------------|
B|-0-20b22-20b22-----0-18b20-18b20-----0-20b22-20b22-20b22-------------------|
G|-0-----------------0-----------------0-------------------------------------|
D|---------------------------------------------------------------------------|
A|---------------------------------------------------------------------------|
E|---------------------------------------------------------------------------|

     d     u   d     u   d     u   d     u   d     u
e|---20p17-0--20p17-0---20p17-0---20p17-0---20p17-0-------------------------|
B|---------------------------------------------------------------------------|
G|---------------------------------------------------------------------------|
D|---------------------------------------------------------------------------|
A|---------------------------------------------------------------------------|
E|---------------------------------------------------------------------------|

e|-0-17----17----17-----0-15----15----15-----0-------------------------------|
B|-0-20b22-20b22-20b22--0-18b20-18b20-18b20--0-17----17----17----17----17----|
G|-0--------------------0--------------------0-19b21-19b21-19b21-19b21-19b21-|
D|---------------------------------------------------------------------------|
A|---------------------------------------------------------------------------|
E|---------------------------------------------------------------------------|

e|-0-------------------------------------------------------------------------|
B|-0-8--------10----------10----10----------10------10----10----10-----------|
G|-0-10b12----12b14-------12b14-12b14-------12b14---12b14-12b14-12b14--------|
D|---------------------------------------------------------------------------|
A|---------------------------------------------------------------------------|
E|---------------------------------------------------------------------------|

e|-0-------------------------------0-12----12----12--------------------------|
B|-0-13----13-------12----12-------0-15b17-15b17-15b17-----------------------|
G|-0-15b17-15b17----14b16-14b16----0-----------------------------------------|
D|---------------------------------------------------------------------------|
A|---------------------------------------------------------------------------|
E|---------------------------------------------------------------------------|

     d  d  u     d  d  u     d  d  u     d  d  u
e|------12-15p12----12-15p12----12-15p12----12-15p12-0-0---------------------|
B|---15----------15----------15----------15----------0-0---------------------|
G|---------------------------------------------------0-0---------------------|
D|---------------------------------------------------------------------------|
A|---------------------------------------------------------------------------|
E|---------------------------------------------------------------------------|

     d     d  d  u     d  d  u     d  d  u     d  d  u     d  d
e|---20p17----17-20p17----17-20p17----17-20p17----17-20p17----17-------------|
B|---------20----------20----------20----------20----------20----------------|
G|---------------------------------------------------------------------------|
D|---------------------------------------------------------------------------|
A|---------------------------------------------------------------------------|
E|---------------------------------------------------------------------------|

e|---20p17----17-20p17----17-20p17----17-20p17----17-20p17-0-0---------------|
B|---------20----------20----------20----------20----------0-0---------------|
G|---------------------------------------------------------0-0---------------|
D|---------------------------------------------------------------------------|
A|---------------------------------------------------------------------------|
E|---------------------------------------------------------------------------|


Part II:

e|---12----17-0-------17-17----------17-17-17----------17-17-17-------------|
B|---15b17----0--15b17----------15b17-------------15b17----------------------|
G|------------0--------------------------------------------------------------|
D|---------------------------------------------------------------------------|
A|---------------------------------------------------------------------------|
E|---------------------------------------------------------------------------|

e|---------17-17------------------17-17-17-----------------------------------|
B|---15b17-------17r15--13--15b17----------15b16r15-1313-13----------------|
G|---------------------------------------------------------------------------|
D|---------------------------------------------------------------------------|
A|---------------------------------------------------------------------------|
E|---------------------------------------------------------------------------|

e|---------17-17-17------------------------17-17-17--------------------------|
B|---15b17----------17r15---13-15-13-15b17----------17r15-1313-13----------|
G|---------------------------------------------------------------------------|
D|---------------------------------------------------------------------------|
A|---------------------------------------------------------------------------|
E|---------------------------------------------------------------------------|

    d     u   d     u   d     u  d     u  d     u  d     u  d     u  d     u
e|---------------------------------------------------------------------------|
B|--15p13-----15p13-----15p13----15p13----15p13----15p13----15p13----15p13---|
G|--------14--------14--------0--------0--------0--------0--------0--------0-|
D|---------------------------------------------------------------------------|
A|---------------------------------------------------------------------------|
E|---------------------------------------------------------------------------|
[ Tab from: http://www.guitaretab.com/r/red-hot-chili-peppers/43144.html ]
e|---------------------------------------------------------------------------|
B|---15p13----15p13----15p13----15p13----15p13----15p13----15p13----15p13----|
G|---------0--------0--------0--------0--------0--------0--------0--------0--|
D|---------------------------------------------------------------------------|
A|---------------------------------------------------------------------------|
E|---------------------------------------------------------------------------|

  *hold note and grab a new pick
e|---------------------------------------------------------------------------|
B|-----------------------------------20-------2020b22*----22r20--17-20b22*-|
G|---19b21---19b21---19b21---19b21------19b21--------------------------------|
D|---------------------------------------------------------------------------|
A|---------------------------------------------------------------------------|
E|---------------------------------------------------------------------------|

e|---------------------------------------------------------------------------|
B|---22r20--17-------17-------17-20-----------------20-----------------------|
G|-------------19b21----19b21-------21r19--1719b21----21r19--17-19-17-16-17-|
D|---------------------------------------------------------------------------|
A|---------------------------------------------------------------------------|
E|---------------------------------------------------------------------------|

e|---------------------------------------------------------------------------|
B|-----------------------------------20--------------------------------------|
G|---19b21-21r19---17-16-17---19b21----21r19-17-16-17-----------------------|
D|---------------------------------------------------------------------------|
A|---------------------------------------------------------------------------|
E|---------------------------------------------------------------------------|


Part III:

     d   d     u  d     u  d     u  d     u
e|---------------------------------------------------------------------------|
B|---------------------------------------------------------------------------|
G|---19--19p17-0--19p17-0--19p17-0--19p17-0--19b21--21-21--21-19-17----------|
D|------------------------------------------------------------------19-------|
A|---------------------------------------------------------------------------|
E|---------------------------------------------------------------------------|

     d  d    d  d  d u d  u  d  u  d  u  d  u  d  u
e|-----------------17--17----17----17----17----17----------------------------|
B|------17---17-17---17---17----17----17----17----17-------------------------|
G|---------------------------------------------------------------------------|
D|---19----------------------------------------------------------------------|
A|---------------------------------------------------------------------------|
E|---------------------------------------------------------------------------|

     d  u  d  u  d  u  d  u  d  u  d  u  d  u  d
e|---17-------19-------17-------19-------17----------------------------------|
B|------17-17----17-17----17-17----17-17----17-17----------------------------|
G|---------------------------------------------------------------------------|
D|---------------------------------------------------------------------------|
A|---------------------------------------------------------------------------|
E|---------------------------------------------------------------------------|

     d  u  d  u  d  u  d  u  d  u  d  u  d  u  d
e|---19-------17-------19-------17-------19----------------------------------|
B|------17-17----17-17----17-17----17-17----17-17----------------------------|
G|---------------------------------------------------------------------------|
D|---------------------------------------------------------------------------|
A|---------------------------------------------------------------------------|
E|---------------------------------------------------------------------------|

e|---17-------19-------17-------19-------17----------------------------------|
B|------17-17----17-17----17-17----17-17----17-17----------------------------|
G|---------------------------------------------------------------------------|
D|---------------------------------------------------------------------------|
A|---------------------------------------------------------------------------|
E|---------------------------------------------------------------------------|

e|---17-------19-------17-------19-------17----0-----------------------------|
B|------17-17----17-17----17-17----17-17----17-0-----------------------------|
G|---------------------------------------------0-----------------------------|
D|---------------------------------------------------------------------------|
A|---------------------------------------------------------------------------|
E|---------------------------------------------------------------------------|

  *hold note as guitar screams
e|---20b22*-------20b22--20b22r20~---20b22r20--17--20------------------------|
B|---------------------------------------------------------------------------|
G|---------------------------------------------------------------------------|
D|---------------------------------------------------------------------------|
A|---------------------------------------------------------------------------|
E|---------------------------------------------------------------------------|

e|---17p0-0--17p0-0--17h20-0--17h20-0--17h20-0--17h20-0----------------------|
B|---------------------------------------------------------------------------|
G|---------------------------------------------------------------------------|
D|---------------------------------------------------------------------------|
A|---------------------------------------------------------------------------|
E|---------------------------------------------------------------------------|

e|---17h20-0--17h20-0--17h20-0--17h20-0--17h20-0--17h20-0--------------------|
B|---------------------------------------------------------------------------|
G|---------------------------------------------------------------------------|
D|---------------------------------------------------------------------------|
A|---------------------------------------------------------------------------|
E|---------------------------------------------------------------------------|

e|-0-------------------------------------------------------------------------|
B|-0-20b22r20--17--20--17h20p17-------17-------------------------------------|
G|-0----------------------------19b21----19b21r19--17--19p17-16--17p16-------|
D|---------------------------------------------------------------------19~---|
A|---------------------------------------------------------------------------|
E|---------------------------------------------------------------------------|

  *amp feedback/hear the crowd roar/wait for the drumroll
e|---------------------------------------------------------------------------|
B|---------------------------------------------------------------------------|
G|---------------------------------------------------------------------------|
D|---19b21--17~-----14~*-----------------------------------------------------|
A|---------------------------------------------------------------------------|
E|---------------------------------------------------------------------------|

  *strike the chord hard/wipe the sweat off forehead/move on to the next song
e|---------------------------------------------------------------------------|
B|---------------------------------------------------------------------------|
G|---2*----------------------------------------------------------------------|
D|---2*----------------------------------------------------------------------|
A|---0*----------------------------------------------------------------------|
E|---------------------------------------------------------------------------|

-THE END-


| h  hammer-on
| p  pull-off
| ~  vibrato
| b  bend
| r  release
| x  Mute note
===============================================================================
Related for Throw Away Your Television tab