Song name
# A B C D E F G H I J K L M N O P Q R S T U V W X Y Z

Red Hot Chili Peppers - What Is Soul tab

Red Hot Chili Peppers - What is soul?
This song/jam of the Chili Peppers dvd "off the map." Its quite a cool song to jam to 
not very difficult. Even a beginning guitarist could play this lick...

Standard tuning: E A D G B e
This is the Fleas part... You could play this on a regular guitar..
e|--------------------------------------------|
B|--------------------------------------------|
G|--------------------------------------------|
D|--------------------------------------------|
A|----3----3--5--------3-----3--5-------------|
E|-5----5-----------5-----5--------1--3-------|
Then there is the last part of the riff.
e|--------------------------------------------|
B|--------------------------------------------|
G|--------------------------------------------|
D|-----------3--------------------------------|
A|-------3-5---5------------------------------|
E|-3-4-5--------------------------------------|

After this John basiclly does the same thing.. Just in a higher tone..

e|------------------------------------------------------------------|
B|----12----12--14-------12-----12---14-----------------------------|
G|-13----13-----------13-----13--------------11---------------------|
D|--------------------------------------14--------------------------|
A|------------------------------------------------------------------|
E|------------------------------------------------------------------|

e|----------------13-----------------------------------------------|
B|----------13-15----15--------------------------------------------|
G|-12-13-14--------------------------------------------------------|
D|-----------------------------------------------------------------|
A|-----------------------------------------------------------------|
E|-----------------------------------------------------------------|

Tip: use wah-wah while you play Johns part... Brings the song up to new level in 
( dont think that its even a word )

well that is all im afraid to say.. I cant figure out the solo because its just so damn 
But if you know it, put it out here, so many more can enjoy this funky song..
Cheers!
Tap to rate this tab
# A B C D E F G H I J K L M N O P Q R S T U V W X Y Z