Guitaretab - guitar tabs
Song name
# A B C D E F G H I J K L M N O P Q R S T U V W X Y Z

Red Hot Chili Peppers - Save The Population tab

INTRO-
e------------------------------------------------|
B----------------15--15--------------------------|
G----15----------------------15---------17--17---|
D-17---15-----------------17---15----------------|
A---------18-17----17--17---------18-17---17--17-|
E------------------------------------------------|

e------------------------------------------|
B------------------------------------------|
G----15------------------------------------|
D-17---15-------19-19b20b19-17-15b17b15-12-|
A---------18-17----------------------------|
E------------------------------------------|
RIFF-
e---------------------------------------------------------------|
B------------------1818181818-18------------------1616161616-16-|
G----15------------xxxxxxxxxx-xx----15------------xxxxxxxxxx-xx-|
D-17---15----------xxxxxxxxxx-xx-17---15----------xxxxxxxxxx-xx-|
A---------18-17-17-1717171717-17---------18-17-17-1717171717-17-|
E---------------------------------------------------------------|

e------------------------------------------------------------|
B------------------1515151515-15-----------------------------|
G----15------------xxxxxxxxxx-xx-1717171717-17-1515151515-15-|
D-17---15----------xxxxxxxxxx-xx-xxxxxxxxxx-xx-xxxxxxxxxx-xx-|
A---------18-17-17-1717171717-17-1717171717-17-1717171717-17-|
E------------------------------------------------------------|

e-----------------------------|
B-----------------------------|
G-----------------------------|
D-1919191919-19-1818181818-18-|
A-1717171717-17-1717171717-17-|
E-----------------------------|

e---------------------------------------------------------------5555555-|
B--------------------------------5/77777-7----------7-7b8b7-----7777777-|
G---3----------------------3-----------------3-------------7-7p55555555-|
D-5-------/1010101010-10-5-----------------5--------------------7777777-|
A-----6-5--------------------6-5---------------6-5~-------------5555555-|
E-----------------------------------------------------------------------|
PRECHORUS-
e-3-3-3-3-3/-6-6-6-6-6-6/-|
B-3-3-3-3-3/-6-6-6-6-6-6/-|
G-3-3-3-3-3/-7-7-7-7-7-7/-|
D-5-5-5-5-5/-8-8-8-8-8-8/-|
A-5-5-5-5-5/-8-8-8-8-8-8/-|
E-3-3-3-3-3/-6-6-6-6-6-6/-|x2

e-111111-1111-1111-1111-1111/8-8-8--8-8--8-8--8-8--8-8-/-|
B-111111-1111-1111-1111-1111/8-8-8--8-8--8-8--8-8--8-8-/-|
G-121212-1212-1212-1212-1212/8-8-8--8-8--8-8--8-8--8-8-/-|
D-131313-1313-1313-1313-1313/101010-1010-1010-1010-1010/-|
A-131313-1313-1313-1313-1313/101010-1010-1010-1010-1010/-|
E-111111-1111-1111-1111-1111/8-8-8--8-8--8-8--8-8--8-8-/-|

e-10101010101010101414141415151515-|
B-11111111131313131313131313131313-|
G-11111111111111111111111111111111-|
D-12121212101010101212121212121212-|
A-1212121212121212-----------------|
E-1010101010101010-----------------|
CHORUS-
e-3333-1111-33333333-|
B-4444-1111-33333333-|
G-3333-2222-33333333-|
D-5555-3333-55555555-|
A-6666-3333-55555555-|
E------1111-33333333-|
on acoustic(only throughout the chorus)
e---15-----------------------------------|
B-----15--13-15-13-15----15--13-15-13-15-|
G-12----12-----------1212--12------------|
D----------------------------------------|
A----------------------------------------|
E----------------------------------------|
[ Tab from: http://www.guitaretab.com/r/red-hot-chili-peppers/46685.html ]
e------------------------------------15--14----------------15151515-|
B-----15--13-15-13-15-----15--13-15--------15--13-15-13-15-15151515-|
G-1212--12------------1212--12-----12--12----12------------12121212-|
D-------------------------------------------------------------------|
A-------------------------------------------------------------------|
E-------------------------------------------------------------------|
Im sure if u listen to the song u can figure out the patern and where everything goes in the lead part.
RIFF-
e---------------------------------------------------------------|
B------------------1818181818-18------------------1616161616-16-|
G----15------------xxxxxxxxxx-xx----15------------xxxxxxxxxx-xx-|
D-17---15----------xxxxxxxxxx-xx-17---15----------xxxxxxxxxx-xx-|
A---------18-17-17-1717171717-17---------18-17-17-1717171717-17-|
E---------------------------------------------------------------|

e------------------------------------------------------------|
B------------------1515151515-15-----------------------------|
G----15------------xxxxxxxxxx-xx-1717171717-17-1515151515-15-|
D-17---15----------xxxxxxxxxx-xx-xxxxxxxxxx-xx-xxxxxxxxxx-xx-|
A---------18-17-17-1717171717-17-1717171717-17-1717171717-17-|
E------------------------------------------------------------|

e-----------------------------|
B-----------------------------|
G-----------------------------|
D-1919191919-19-1818181818-18-|
A-1717171717-17-1717171717-17-|
E-----------------------------|

e-----------------------------------------------|
B---------------19--19-----------------16--16---|
G----15---------------------15------------------|
D-17---15----------------17---15----------------|
A---------18-17---17--17---------18-17---17--17-|
E-----------------------------------------------|

e------------------------------------------------------------|
B------------------1515151515-15-----------------------------|
G----15------------xxxxxxxxxx-xx-1717171717-17-1515151515-15-|
D-17---15----------xxxxxxxxxx-xx-xxxxxxxxxx-xx-xxxxxxxxxx-xx-|
A---------18-17-17-1717171717-17-1717171717-17-1717171717-17-|
E------------------------------------------------------------|

e-----------------------------|
B-----------------------------|
G-----------------------------|
D-1919191919-19-1818181818-18-|
A-1717171717-17-1717171717-17-|
E-----------------------------|

e---------------------------------------------------------------5555555-|
B--------------------------------5/77777-7----------7-7b8b7-----7777777-|
G---3----------------------3-----------------3-------------7-7p55555555-|
D-5-------/1010101010-10-5-----------------5--------------------7777777-|
A-----6-5--------------------6-5---------------6-5~-------------5555555-|
E-----------------------------------------------------------------------|
PRECHORUS-
e-3-3-3-3-3/-6-6-6-6-6-6/-|
B-3-3-3-3-3/-6-6-6-6-6-6/-|
G-3-3-3-3-3/-7-7-7-7-7-7/-|
D-5-5-5-5-5/-8-8-8-8-8-8/-|
A-5-5-5-5-5/-8-8-8-8-8-8/-|
E-3-3-3-3-3/-6-6-6-6-6-6/-|x2

e-111111-1111-1111-1111-1111/8-8-8--8-8--8-8--8-8--8-8-/-|
B-111111-1111-1111-1111-1111/8-8-8--8-8--8-8--8-8--8-8-/-|
G-121212-1212-1212-1212-1212/8-8-8--8-8--8-8--8-8--8-8-/-|
D-131313-1313-1313-1313-1313/101010-1010-1010-1010-1010/-|
A-131313-1313-1313-1313-1313/101010-1010-1010-1010-1010/-|
E-111111-1111-1111-1111-1111/8-8-8--8-8--8-8--8-8--8-8-/-|

e-10101010101010101414141415151515-|
B-11111111131313131313131313131313-|
G-11111111111111111111111111111111-|
D-12121212101010101212121212121212-|
A-1212121212121212-----------------|
E-1010101010101010-----------------|
CHORUS-
e-3333-1111-33333333-|
B-4444-1111-33333333-|
G-3333-2222-33333333-|
D-5555-3333-55555555-|
A-6666-3333-55555555-|
E------1111-33333333-|
on acoustic(only throughout the chorus)end on Gm,the last chord
e---15-----------------------------------|
B-----15--13-15-13-15----15--13-15-13-15-|
G-12----12-----------1212--12------------|
D----------------------------------------|
A----------------------------------------|
E----------------------------------------|

e------------------------------------15--14-----------------|
B-----15--13-15-13-15-----15--13-15--------15--13-15-13-15--|
G-1212--12------------1212--12-----12--12----12-------------|
D-----------------------------------------------------------|
A-----------------------------------------------------------|
E-----------------------------------------------------------|
Related for Save The Population tab
Save The Population chords by Red Hot Chili Peppers