Song name
# A B C D E F G H I J K L M N O P Q R S T U V W X Y Z

Red Hot Chili Peppers - Sweet Home Alabama Live tab

-----------------------------------------------------------------------------
			     SONG NAME - Band Name
-----------------------------------------------------------------------------
Tabbed by: Ben Lavin 
Email: bennybeast1@hotmail.com- any comments or help, but please no death threats!

Tuning: EADGBe

/=slide up
\=slide down
h=hammer on
p=pull off
v or ~= vibrato
x=left hand mute e.g x7 means left hand mute on the seventh fret.

This the Red Hot Chili Peppers version of 'Sweet Home Alabama',
previously by Lynard Skynard, many people will not have heard this version as it is live.

e|---------------------------------------------------------------------------
B|---------------------------------------------------------------------------
G|---------12-12-12----------------------------------------------------------
D|---------12-12-12-----------------10-10-----------------3-3----------------
A|-----------------------------------------------------3---------------------
E|--10/12--------------12\10---8/10----------10\5--3h5---------3-------------

^^^^^^^^^^^^^^^ Repeat Once (So play twice)^^^^^^^^^^^^^^^^^^^^^^^^^
Then...
e|-----------------7~-6-3~---------------------------------------------------
B|---------------------------------------------------------------------------
G|---------------------------------------------------------------------------
D|---------------------------------------------------------------------------
A|---------------------------------------------------------------------------
E|---------------------------------------------------------------------------

 John plays nothing for the first line of the verse then on the second line play:
e|------------------------------------------------------------------------3--
B|-------2----------------------3--------------------------------------0-----
G|----------3-----------------------0-----------------------------0-2--------
D|--0-0--------0------------------------0--------------------0-2-------------
A|------------------------3--3--------------------------0-2------------------
E|----------------------------------------------3--3-------------------------
Third line of Verse:
e|---------------------------------------------------------------------------
B|---------------------------------------------------------------------------
G|------7--7--x7--x7-7-----5--5--x5--x5--5-----------------------------------
D|------7--7--x7--x7-7-----5--5--x5--x5--5---3--3--x3--x3--3-------------3-5-
A|-------------------------------------------3--3--x3--x3--3--------3-5------
E|---------------------------------------------------------------------------

e|---------------------------------------------------------------------------|
B|---------------------------------------------------------------------------|
G|---------------------------------------------------------------------------|
D|---------------------------------------------------------------------------|
A|---------------------------------------------------------------------------|
E|---------------------------------------------------------------------------|

e|---------------------------------------------------------------------------|
B|---------------------------------------------------------------------------|
G|---------------------------------------------------------------------------|
D|---------------------------------------------------------------------------|
A|---------------------------------------------------------------------------|
E|---------------------------------------------------------------------------|

e|---------------------------------------------------------------------------|
B|---------------------------------------------------------------------------|
G|---------------------------------------------------------------------------|
D|---------------------------------------------------------------------------|
A|---------------------------------------------------------------------------|
E|---------------------------------------------------------------------------|

e|---------------------------------------------------------------------------|
B|---------------------------------------------------------------------------|
G|---------------------------------------------------------------------------|
D|---------------------------------------------------------------------------|
A|---------------------------------------------------------------------------|
E|---------------------------------------------------------------------------|


| /  slide up
| \  slide down
| h  hammer-on
| p  pull-off
| ~  vibrato
| +  harmonic
| x  Mute note
===============================================================================
Tap to rate this tab
 
# A B C D E F G H I J K L M N O P Q R S T U V W X Y Z