Song name
# A B C D E F G H I J K L M N O P Q R S T U V W X Y Z

Red Hot Chili Peppers - Skinny Sweaty Man tab

Uplift Mofo Party Plan fuckin Rules!
tuining-standard-EADGBe

Ok, this will be simple since there are only 2 riffs to this song

Verse(funk strokes)

1-3-3-3---------|
2-5-5-5---------|
3---------------|
4---------------|
5---------------|
6---------------|

Chorus

1------------------------|
2------------------------|
3-5-4-3-2-0-2-3-4-0------|
4-------------------2-2--|
5------------------------|
6------------------------|

and thats all she wrote

for questions e-mail me at horny_devil183@hotmail.com
Tap to rate this tab
# A B C D E F G H I J K L M N O P Q R S T U V W X Y Z