Song name
# A B C D E F G H I J K L M N O P Q R S T U V W X Y Z

Red Hot Chili Peppers - Jungle Man tab

-----------------------------------------------------------------------------
		   JUNGLE MAN - Red Hot Chili Peppers
-----------------------------------------------------------------------------
Tabbed by: Ignacio "Coco" Vespoli
Email: cocofuhgawz@hotmail.com

Tuning: Normal

GUITAR INTRO
e|--14-14-x-------14-14-x--------|------------------|
B|--14-14-x-------14-14-x--------|------------------|
G|--14-14-x-------14-14-x--------|------------------|
D|----------14-16---------17-16--|------------------|
A|-------------------------------|--5--55555555555--|
E|-------------------------------|------------------|
             2 times                   1 time


VERSE
e|---------------|-----------------|---------------|------5-5-----7-7--|
B|---------------|-----------------|---------------|------5-5-----7-7--|
G|---------------|-----------------|---------------|------4-4-----6-6--|
D|------4-4---4--|------4-4---2-4--|------4-4---4--|------5-5-----7-7--|
A|---------------|-----------------|---------------|--5-5-----7-7------|
E|--0h2-----2----|--0h2-----2------|--0h2-----2----|-------------------|


CHORUS
e|--14-14-x-------14-14-x--------|
B|--14-14-x-------14-14-x--------|
G|--14-14-x-------14-14-x--------|
D|----------14-16---------17-16--|
A|-------------------------------|
E|-------------------------------|


BRIDGE
e|--12-12-12-12-12-12...--|
B|--12-12-12-12-12-12...--|
G|--12-12-12-12-12-12...--|
D|--12-12-12-12-12-12...--|
A|------------------------|
E|------------------------|

SOLO
Its and improvisation in a funky style, i cant tab it, but im gonna give you guys and 
the solo is not going to be the same as the one in the song, but play it with the same 
and you will get it

w/bar

        b.u.    b.d.
e|-12------------------------------------------------------------------------|
B|-13---12-(13)___12--------------10--10-------------------------------------|
G|-12---12-(14)___12-12--12-13-14--------14-13-12-7-------------10-10--------|
D|--------------------------------------------------9---9-10-12-------12-11--|
A|---------------------------------------------------------------------------|
E|---------------------------------------------------------------------------|

                                        tr.     tr.
-----------------------------------------------------------------------------|
-----------------------------------------------------------------------------|
-----------------------------------------------10h12p---+_10_+---------------|
--9-7----------------------8-8----------10h12p-------------------7-7-7-9-10--|
------8---9-9-11--10-10-12-----12-10-9-------------------------8-------------|
-----------------------------------------------------------------------------|

                                  b.u.
-------------------------------------------------|
-------------------------------------------------|
--7-7-7--------------------------3-(4)-let ring--|
--------10-9---9-7-------------------------------|
-------------------9-7---------------------------|
-----------------------8-6-3---------------------|


BRIDGE 2
e|--2-2-2-----|--2-2-2-------|
B|--2-2-2-----|--2-2-2-------|
G|--3-3-3--1--|--3-3-3--2----|
D|--4-4-4--2--|--4-4-4--2-2--|
A|--4-4-4--2--|--4-4-4--0-2--|
E|--2-2-2-----|--2-2-2----0--|


OUTRO
Guitar 1 plays intro a lot while guitars 2 play the second solo

Guitar 1
e|--14-14-x-------14-14-x--------|------------------|
B|--14-14-x-------14-14-x--------|------------------|
G|--14-14-x-------14-14-x--------|------------------|
D|----------14-16---------17-16--|------------------|
A|-------------------------------|--5--55555555555--|
E|-------------------------------|------------------|
             2 times                   1 time


Guitar 2 with a weird effect
e|--------------------------------------------------------------------|
B|-------------------+_7_+use your bar a lot--9/12--------------------|
G|--2 use bar a lot---------------------------9/12use your bar a lot--|
D|--------------------------------------------------------------------|
A|--------------------------------------------------------------------|
E|--------------------------------------------------------------------|

         b.u.                     b.u.
------------------------|------------------------|
--------15-(16)--14-12--|--------18-(19)--17-15--|
--12-12-----------------|--12/15-----------------|
------------------------|------------------------|
------------------------|------------------------|
------------------------|------------------------|
       a lot                     a lot


Guitar 1
e|--2-2-2-----|--2-2-2-------|
B|--2-2-2-----|--2-2-2-------|
G|--3-3-3--1--|--3-3-3--2----|
D|--4-4-4--2--|--4-4-4--2-2--|
A|--4-4-4--2--|--4-4-4--0-2--|
E|--2-2-2-----|--2-2-2----0--|

 tr.   tremolo
 r.b.  release bend
 b.d.  bending down
 b.u.  bending up
 /     slide up
 \     slide down
 h     hammer-on
 p     pull-off
 ~     vibrato
 +     harmonic
 x     Mute note
===============================================================================
Comments? send me and e-mail!!!
Tap to rate this tab
# A B C D E F G H I J K L M N O P Q R S T U V W X Y Z