Song name
# A B C D E F G H I J K L M N O P Q R S T U V W X Y Z

Red Hot Chili Peppers - Right On Time Live tab

                            Right On Time Intro:
                               TRANSMISSION
                              by Joy Division
                      PLAYED BY JOHN FRUSCIANTE AND FLEA

                             LIVE IN HYDE PARK


   At first here is the intro on the guitar:

  |---------------------------------------------------------------------|
  |---------------------------------------------------------------------|
  |--2-4-4--4-2-4-4--4-2-4-4--4-2-4-4------------------4-2-4-4--4-2-4-4-|
  |---------------------------------------------------------------------|
  |-----------------------------------2-0-2-2--2-0-2-2------------------|
  |---------------------------------------------------------------------|

  |------------------------------------------------------------------------|
  |------------------------------------------------------------------------|
  |------------------------------------------------------------------------|
  |-----------2-0-2-0-2--2-0-2----0-2-0-2-0-2--2-0-2----0-2-0-2-0-2--2-0-2-|
  |-0-2-0-2-3------------------/2--------------------/2--------------------|
  |------------------------------------------------------------------------|

  |----------|
  |----------|
  |--2/4-4~~-|
  |----------|
  |----------|
  |----------|


  And so you can play the bass on guitar:

 |---------------------------------------------------------------------------|
 |---------------------------------------------------------------------------|
 |--555555555555555-0h2h333333333333333-0h4h555555555555555-0h2h33333333-----|etc.


 Thats it! please rate it and send comments!
Tap to rate this tab
 
# A B C D E F G H I J K L M N O P Q R S T U V W X Y Z