Song name
# A B C D E F G H I J K L M N O P Q R S T U V W X Y Z

Red Hot Chili Peppers - Over Funk tab

Intro & Riff
e---------------------------|
B-7~---9~-------------------|
G-7~---9~-------------------|
D-7~---9~-------------------|(x4)
A-5~---7~-------------------|
E-----------5h7-77-7p5------|
With some distortion maybe.
e----------------------------------------------------------|
B-3-3h2-0-22-0--3-3h2-0-22-0--3-3h2-0-22-0--3-3h2-0-53-0h2-|
G----------------------------------------------------------|
D----------------------------------------------------------|
A----------------------------------------------------------|
E----------------------------------------------------------|
Chorus
e---------------------------
Bxxxx-xxxx---xxxx-xxxxxxxxxx
Gxxxx4xxxx4p3xxxx4xxxxxxxxxx
Dxxxx-xxxx---xxxx-xxxxxxxxxx
Axxxx-xxxx---xxxx-xxxxxxxxxx
E---------------------------(x2)

e---------------------------|
B-7~---9~-------------------|
G-7~---9~-------------------|
D-7~---9~-------------------|(x4)
A-5~---7~-------------------|
E-----------5h7-77-7p5------|

e----------------------------------------------------------|
B-3-3h2-0-22-0--3-3h2-0-22-0--3-3h2-0-22-0--3-3h2-0-53-0h2-|
G----------------------------------------------------------|
D----------------------------------------------------------|
A----------------------------------------------------------|
E----------------------------------------------------------|

Chorus
e---------------------------
Bxxxx-xxxx---xxxx-xxxxxxxxxx
Gxxxx4xxxx4p3xxxx4xxxxxxxxxx
Dxxxx-xxxx---xxxx-xxxxxxxxxx
Axxxx-xxxx---xxxx-xxxxxxxxxx
E---------------------------(x2)

e-9h10-9h10-9h10-9h10-7h9-7h9-7h9-7h9-|
B-------------------------------------|
G-------------------------------------|
D-------------------------------------|
A-------------------------------------|
E-------------------------------------|
Do that until the riff comes in.
e------------------------------------------------------------|
B-3-3h2-0-22-0--3-3h2-0-22-0--3-3h2-0-22-0--3-3h2-0-53-0h2/--|
G------------------------------------------------------------|
D------------------------------------------------------------|
A------------------------------------------------------------|
E------------------------------------------------------------|
Tap to rate this tab
# A B C D E F G H I J K L M N O P Q R S T U V W X Y Z