Guitaretab - guitar tabs
Song name
# A B C D E F G H I J K L M N O P Q R S T U V W X Y Z

Red Hot Chili Peppers - Quixoticelixir tab

Intro :
e|---------------------|------14-x-14-x-14---14-x|
B|------7-x-7-x-7---7-x|------14-x-14-x-14---14-x|
G|-7----7-x-7-x-7---7-x|------14-x-14-x-14---14-x|
D|-9----9-x-9-x-9---9-x|(11)--11-x-11-x-11---11-x|
A|---------------------|-12----------------------|
E|---------------------|-------------------------|

e|---------------------|------14-x-14------------|
B|------7-x-7-x-7---7-x|------14-x-14------------|
G|-7----7-x-7-x-7---7-x|------14-x-14------------|
D|-9----9-x-9-x-9---9-x|(11)--11-x-11------------|
A|---------------------|-12----------------------|
E|---------------------|-------------------------|

Verse 1:
Kick back and love just to watch and see 
Getting sicker by the minute with departury 
Whatever your pleasure i'm your punk 
On the brink of sinking baby but not yet sunk 
How i listened low when you told me that i was all you had to hold 
e|---------------------|------14-x-14-x-14---14-x|
B|------5-x-5-x-5---5-x|------14-x-14-x-14---14-x|
G|-5----5-x-5-x-5---5-x|------14-x-14-x-14---14-x|
D|-7----7-x-7-x-7---7-x|(11)--11-x-11-x-11---11-x|
A|---------------------|-12----------------------|
E|---------------------|-------------------------|

 I wish it was so when you told me that you were solid gold 
e|--------------------|--------------------|
B|--------------------|--------------------|
G|--------------------|--------------------|
D|-6------------------|--------------------|
A|-7------------------|--------------------|
E|--------------------|--------------------|

Verse 2:
Gravity free is she look at the... 
harness on a matress full of anti-matter 
You never left a very mellow impression 
Your smell or you go to hell expression 
Quixotic elixir might but i probably will not fix your bike 
Tell me now tell me how did i get your lipstick on my kite 


Chorus:
I love this weather its a perfect storm 
Just keep it coming in its perfect form 
I love this wearther cos it keeps me warm 
e|-----------------|--9--9------------|
B|-----------------|-10-10----9----9--|
G|-7--7----6--6----|--9--9----9----9--|
D|-7--7----7--7----|--7--7----9----9--|
A|-5--5----9--9----|------------------|
E|-----------------|------------------|
Just keep it coming in its perfect form 
e|-----------------|--9---------------|
B|-----------------|-10-------9-------|
G|-7--7----6--6----|--9-------9-------|
D|-7--7----7--7----|------------------|
A|-5--5----9--9----|------------------|
E|-----------------|------------------|

[ Tab from: http://www.guitaretab.com/r/red-hot-chili-peppers/70633.html ]
Verse 3:
Everyday depression in a beautiful dress 
Oh, later made a beautiful mess i guess 
Dedicated mind in a medicated state 
Is a highly over-rated fate 
Terrible is it so that you told me that there is such a thing 
Do you know that you glow when you go from winter into spring 


Chorus

The madder the boy, the sadder the song (same chords as chorus)
that's a wicked fate but the sick get strong 
mad boy, sad song 
a wicked fate but the sick get strong 
nobody’s right and everybody's wrong 
I refuse to ???????? 
mad boy, sad song  wicked fate but the sick get... 
e|--------------------|--------------------|
B|-7------------------|-6------------------|
G|-7------------------|-4------------------|
D|-7------------------|-6------------------|
A|-5------------------|-4------------------|
E|--------------------|--------------------|

Intro

Verse 4:
Kick back and love just to watch and see 
Getting sicker by the minute with departury 
Whatever your pleasure i'm your punk 
On the brink of sinking baby but not yet sunk 


How i listened low when you told me that i was all you had to hold 
I wish it was so when you told me that you were solid gold 

Outro:
I swear to God, I could not, hurt you 
I've got to be inside your virtue 
I cant contain my urge to search you 
e|------------------|-----------------|
B|-2-2-x-5-5-5-x-7--|-6-6-6-6--0--4-4-|
G|-3-3-x-6-6-6-x-7--|-6-6-6-6--1--4-4-|
D|-4-4-x-7-7-7-x-7--|-6-6-6-6--2--4-4-|
A|-4-4-x-7-7-7------|-----------------|
E|------------------|-----------------|

e|-0-------0------|-0-------0-------|
B|-0--4-4--0--4-4-|-0--4-4--0---4---|
G|-1--4-4--1--4-4-|-1--4-4--1---4---|
D|-2--4-4--2--4-4-|-2--4-4--2---4---|
A|----------------|-----------------|
E|----------------|-----------------|

I stand before this mountain of curfue 
I long to be inside your virtue 
My heart is swollen when I search you 
e|--------------------|--------------------|
B|--------------------|--------------------|
G|-6-----9------11----|-10----------9------|
D|--------------------|--------9-----------|2nd guitar
A|--------------------|--------------------|
E|--------------------|--------------------|

e|-----------------|------------------|
B|-----------------|------------------|
G|-9-------9-------|-9-------9--------|
D|-----9-------9---|-----9--------9---|
A|-----------------|------------------|
E|-----------------|------------------|

I swear to God, I could not, hurt you 
My heart is swollen when I search you 
I swear to God, I could not, hurt you 

I swear to God, I could not, hurt you 
I've got to be inside your virtue 
I cant contain my urge to search you

e|-----------------|------------------|
B|-----------------|------------------|
G|-9-------9-------|-9-------9--------|
D|-----9-------9---|-----9--------9---|
A|-----------------|------------------|
E|-----------------|------------------|
 
e|--------------------|
B|--------------------|
G|--------------------|
D|-11-----------------|
A|--------------------|
E|--------------------|

Related for Quixoticelixir tab