Guitaretab - guitar tabs
Song name
# A B C D E F G H I J K L M N O P Q R S T U V W X Y Z

Red Hot Chili Peppers - Charlie tab

Charlie-Red Hot Chili Peppers

Intro

e-------------------------------|
B-------------------------------|
G------------3--------------3---|
D-----3----2----------3----2----|
A---2----1----------2----1------|
E-1---------------1-------------|

Verse
'All aboard Stitch in Time....'
e-3-3-3-3--3-3--|
B-3-3-3-3--3-3--|
G-3-3-3-3--3-3--|
D---------------|
A---------------|
E---------------|
'When i pick up on that smell.....'
e-15-15-15-15--15-15--|
B-15-15-15-15--15-15--|
G-15-15-15-15--15-15--|
D---------------------|
A---------------------|
E---------------------|

Chorus
'Charlie's Wakin Me....'
e-----------------------------------------|
B-----------------------------------------|
G-----------------------------------------|
D-13-13-13--12-12-12--15-15-15--13-13-13--|
A-13-13-13--13-13-13--15-15-15--13-13-13--|
E-----------------------------------------| x3
'And Charlies makin me smile.........'
e----------------------------------------|
B----------------------------------------|
G----------------------------------------|
D-13-13-13--12-12-12--15-15-15-15-15-15--|
A-13-13-13--13-13-13--15-15-15-15-15-15--|
E----------------------------------------|

Bridge
'My Heart Your Skin......'
e------------------------|
B------------------------|
G------------------------|
D-12-10----10------------|
A-------13-----13-12-10--|
E------------------------|

Gtr 2

This comes in about half-way through the bridge
[ Tab from: http://www.guitaretab.com/r/red-hot-chili-peppers/72071.html ]
e--------------------|
B--------------------|
G-19-17----17--------|
D-------20----19-17--|
A--------------------|
E--------------------|

Solo after second verse

e---------------10-------13b-10---------------|
B--------11-13-----13-11---------13-13-13p11--|
G-12v-12--------------------------------------|
D---------------------------------------------|
A---------------------------------------------|
E---------------------------------------------| 

Outro Solo
Not quite sure on some of this the start is right though i think!
e----------------------------------------------------------------|
B---------------------13b-11--------13b-11----------------13b11--|
G-12p10-12p10-12p10-----------12p10--------12p10-12p10-15--------|
D----------------------------------------------------------------|
A----------------------------------------------------------------|
E----------------------------------------------------------------|

e------------------------------------------------------------|
B------------------------------------------------------------|
G-12-12p10---------------------------------------------------|
D-----------12p10-12p10-10-12p10-12p10-----10h12p10-----10b--|
A---------------------------------------13----------13b------|
E------------------------------------------------------------|

Then Do this a couple of times....

e-----------------------|
B-----------------------|
G-----------------------|
D-12-10----10-----------|
A-------13----13-12-10--|
E-----------------------|
Related for Charlie tab