Song name
# A B C D E F G H I J K L M N O P Q R S T U V W X Y Z

Red Hot Chili Peppers - She Looks To Me tab

Song: She looks to me
Artist: Red Hot Chili Peppers
Tabbed by: Chester06RHCP
	   Nets6ranking@yahoo.com


Intro:

e------------------11----11-------------------------------|
B---12-------12-------12----12-11----11----14----14-------|
G------13-------13----------------11----11----13----------|
D---------13----------------------------------------------|
A---------------------------------------------------------|
E---------------------------------------------------------|

e------------------11----11-------------|
B---12-------12-------12----12--11------|
G------13-------13--------------11------|
D---------13--------------------11------|
A---------------------------------------|
E---------------------------------------|

e--------------------------------------|
B--------------------------------------|
G---4-4-4---8-8-8--xx------------------|
D---6-6-6---9-9-9--xx--4-4-4s6-6-6-----| x2
A---6-6-6---9-9-9--xx--4-4-4s6-6-6-----|
E-----------7-7-7--xx--2-4-4s4-4-4-----|

Verse:

e--------------------------------------|
B--------------------------------------|
G---4-4-4---8-8-8--xx------------------|
D---6-6-6---9-9-9--xx--4-4-4s6-6-6-----| x3
A---6-6-6---9-9-9--xx--4-4-4s6-6-6-----|
E-----------7-7-7--xx--2-4-4s4-4-4-----|

e-----------------------------2-2---|
B-----------------------------2-2---|
G---4-4-4---8-8-8--xx---------3-3---|
D---6-6-6---9-9-9--xx--4-4-4--4-4---|
A---6-6-6---9-9-9--xx--4-4-4--4-4---|
E-----------7-7-7--xx--2-4-4--2-2---|

Chorus:

e----------------11-11-11----------------------------|
B---12-12-12--x--12-12-12--11-11-11--14-14-14-14-----|
G---13-13-13--x--11-11-12--11-11-11--13-13-13-13-----|
D---13-13-13--x------------11-11-11------------------| x4
A----------------------------------------------------|
E----------------------------------------------------|

Verse 2:

e--------------------------------------|
B--------------------------------------|
G---4-4-4---8-8-8--xx------------------|
D---6-6-6---9-9-9--xx--4-4-4s6-6-6-----| x3
A---6-6-6---9-9-9--xx--4-4-4s6-6-6-----|
E-----------7-7-7--xx--2-4-4s4-4-4-----|

e-----------------------------2-2---|
B-----------------------------2-2---|
G---4-4-4---8-8-8--xx---------3-3---|
D---6-6-6---9-9-9--xx--4-4-4--4-4---|
A---6-6-6---9-9-9--xx--4-4-4--4-4---|
E-----------7-7-7--xx--2-4-4--2-2---|

Chorus:

e----------------11-11-11----------------------------|
B---12-12-12--x--12-12-12--11-11-11--14-14-14-14-----|
G---13-13-13--x--11-11-12--11-11-11--13-13-13-13-----|
D---13-13-13--x------------11-11-11------------------| x4
A----------------------------------------------------|
E----------------------------------------------------|

Bridge:

e-------------------------------------------------|
B-------------------------------------------------|
G---4-4-4-x-x--8-8-8--xx--------------------------|
D---6-6-6-x-x--9-9-9--xx--4-4-4--x-x--4-4-4--x-x--| x2
A---6-6-6-x-x--9-9-9--xx--4-4-4--x-x--4-4-4--x-x--|
E--------------7-7-7--xx--2-4-4--x-x--2-2-2--x-x--|

e--------------------------------------|
B--------------------------------------|
G---4-4-4---8-8-8--xx------------------|
D---6-6-6---9-9-9--xx--4-4-4s6-6-6-----| x4
A---6-6-6---9-9-9--xx--4-4-4s6-6-6-----|
E-----------7-7-7--xx--2-4-4s4-4-4-----|

Verse3:

e--------------------------------------|
B--------------------------------------|
G---4-4-4---8-8-8--xx------------------|
D---6-6-6---9-9-9--xx--4-4-4s6-6-6-----| x3
A---6-6-6---9-9-9--xx--4-4-4s6-6-6-----|
E-----------7-7-7--xx--2-4-4s4-4-4-----|

e-----------------------------2-2---|
B-----------------------------2-2---|
G---4-4-4---8-8-8--xx---------3-3---|
D---6-6-6---9-9-9--xx--4-4-4--4-4---|
A---6-6-6---9-9-9--xx--4-4-4--4-4---|
E-----------7-7-7--xx--2-4-4--2-2---|

Chorus:

e----------------11-11-11----------------------------|
B---12-12-12--x--12-12-12--11-11-11--14-14-14-14-----|
G---13-13-13--x--11-11-12--11-11-11--13-13-13-13-----|
D---13-13-13--x------------11-11-11------------------| x11
A----------------------------------------------------|
E----------------------------------------------------|

Outro:

e----------------11-11-11--------|
B---12-12-12--x--12-12-12--11----|
G---13-13-13--x--11-11-12--11----|
D---13-13-13--x------------11----|
A--------------------------------|
E--------------------------------|
Tap to rate this tab
# A B C D E F G H I J K L M N O P Q R S T U V W X Y Z