Song name
# A B C D E F G H I J K L M N O P Q R S T U V W X Y Z

Red Hot Chili Peppers - Slow Cheetah tab

Slow Cheetah
Red Hot Chili Peppers

		 
Tabbed by: Ryan Wheeler
Email: ryanwheeler4@hotmail.com

Tuning:standard
CAPO 6

Chords (chorus)

    Em7           C            Am
e|---3------------0------------0--|
B|---3------------1------------1--|
G|---0------------0------------2--|
D|---0------------2------------2--|
A|---2------------3---------------|
E|--------------------------------|


Riff 1

EM                 G                A2                C
E|-----------------|-----------------|-----------------|------------0----|
B|-----------------|-----------------|------------0----|-----------------|
G|------------0----|------------0----|------2----------|------0----------|
D|------2----------|------0----------|-----------------|-----------------|
A|-----------------|-----------------|--0---0---0---0--|--3---3---3---3--|
E|--0---0---0---0--|--3---3---3---3--|-----------------|-----------------|

Riff 2

e|------2-----0----|-----------------|-----------------|-----------------|
B|-----------------|------3-----0----|-----------------|-----------------|
G|-----------------|------0-------0--|------2-----0----|-----------------|
D|------2-------2--|-----------------|------0-------0--|------2-----0----|
A|-----------------|--0-------0------|--0-------0------|--0---0---0---0--|
E|--0-------0------|-----------------|-----------------|-----------------|


Chorus

C            Em7       A2
C            Em7       A2
Slow cheetah come before my forest,
C            Em7       A2
Looks like it's on today
C            Em7       A2
Slow cheetah come, it's so euphoric,
C            Em7       A2
No matter what they say



SOLO:

Start: 3:38
e|-----------------------------------------------------------------|
B|-----3----------------------------3-5----------------------------|
G|-2/4---4\2--0h2-0------------2/4-------4\2--0-2-2----------------|
D|-----------------------------------------------------------------|
A|-----------------------------------------------------------------|
E|-----------------------------------------------------------------|

e|-----------------------------------------------------------------|
B|----------------------------------3-5----------------------------|
G|------0-2--2h0-0h2-0-0-------2/4-------4/2--0-2-2----------------|
D|-0h2-------------------------------------------------------------|
A|-----------------------------------------------------------------|
E|-----------------------------------------------------------------|

e|-----------------------------------------------------------------|
B|-----------------------------------------------------------------|
G|-----0h2-0h2-4p2-0h2-0-0----------3-5----------------------------|
D|-0h2-------------------------2/4-------4\2--0-2-2----------------|
A|-----------------------------------------------------------------|
E|-----------------------------------------------------------------|

e|-----------------------------------------------------------------|
B|----------------------------------3-5----------------------------|
G|------0-2--2h0-0h2-0-0-------2/4-------4/2--0-2-2----------------|
D|-0h2-------------------------------------------------------------|
A|-----------------------------------------------------------------|
E|-----------------------------------------------------------------|


Please Rate..thanks

| /  slide up
| \  slide down
| h  hammer-on
| p  pull-off
| ~  vibrato
| +  harmonic
| x  Mute note
===============================================================================
Tap to rate this tab
 
# A B C D E F G H I J K L M N O P Q R S T U V W X Y Z