Song name
# A B C D E F G H I J K L M N O P Q R S T U V W X Y Z

Red Hot Chili Peppers - Make You Feel Better tab

Help us improve GuitareTab! Take a short survey!
Hey Toby Two Times here. This is a easy song to learn from the new album stadium 
This is 100%correct!! Enjoy!!

Chords          h-hammer on  p-pull off  wb- whole bend {1}

   Em       Bm        C        G        D        Em*        Am       G*
|---0--------2--------0-----------------2--------------------0-------3-----|
|---0--------3--------1--------0--------3---------8----------1-------0-----|
|---0--------4--------0--------0--------2---------8----------2-------0-----|
|---2--------4--------2--------0--------0---------9----------2-------0-----|
|---2--------2--------3--------x--------0---------7----------0-------x-----|
|---0--------------------------3------------------7------------------3-----|

Intro                      (All Chords 1 strum except for chorus and bridge)
Em Bm C G (x2)

Verse
Em Bm C G (x2)

Pre Chorus
Em Bm C G (x2)

Verse
Em Bm C G (x2)

Pre Chorus
Em Bm C G (1x)
Em Bm C G G G G G

Chorus
G* D Em C (x4)                 (5 strums each chord for chorus)

Interlude
Em Bm C G (x2)

Verse
Em Bm C G (x4)

Chorus
G* D Em C (x4)

Bridge
D Em* C Am C

Interlude
Em Bm C G (x2)

Verse
Em Bm C G (x2)

Pre Chorus
Em Bm C G (x1)
Em Bm C G G G G G

Chorus
G* D Em C (x4)

Solo

|---------14-----15-----17-wb-(17)---|-----14---15------------------------|
|--15--------------------------------|-15-----------15-wb(15)wb(15)wb(15)-|
|------------------------------------|------------------------------------|
|------------------------------------|------------------------------------|
|------------------------------------|------------------------------------|
|------------------------------------|------------------------------------|

|------14---15---17--wb(17)wb(17)-|------------------------------------------|
|-15------------------------------|-15-13-12-12h13p12------------------------|
|---------------------------------|---------------------12--14wb(14)wb(14)12-|
|---------------------------------|------------------------------------------|
|---------------------------------|------------------------------------------|
|---------------------------------|------------------------------------------|
Related for Make You Feel Better tab