Guitaretab - guitar tabs
Song name
# A B C D E F G H I J K L M N O P Q R S T U V W X Y Z

Red Hot Chili Peppers - Quixoticelixer tab

Intro
e-10-10-10-10--14-14-14-14--10-10-10-10--14-14~-|
B-12-12-12-12--14-14-14-14--12-12-12-12--14-14~-|
G-11-11-11-11--14-14-14-14--11-11-11-11--14-14~-|
D-9--9--9--9---X--X--X--X---9--9--9--9---X--X---|
A--------------12-12-12-12---------------12-12~-|
E-----------------------------------------------|
Riff
e-10-10-10-10--14-14-14-14--10-10-10-10--14-14-14-14-|
B-12-12-12-12--14-14-14-14--12-12-12-12--14-14-14-14-|
G-11-11-11-11--14-14-14-14--11-11-11-11--14-14-14-14-|
D-9--9--9--9---X--X--X--X---9--9--9--9---X--X--X--X--|
A--------------12-12-12-12---------------12-12-12-12-|
E----------------------------------------------------|

e-10-10-10-10--14-14-14-14---------|
B-12-12-12-12--14-14-14-14---------|
G-11-11-11-11--14-14-14-14---------|
D-9--9--9--9---X--X--X--X----------|x2
A--------------12-12-12-12--12-11~-|
E----------------------------------|
Chorus
e-------------------------|
B-7-7--10-10--14-14--9X9/-|
G-7-7--11-11--14-14--9X9/-|
D-7-7--11-11--14-14--9X9/-|x3
A-5-5--9--9---12-12--7X7/-|
E-------------------------|

e---------------------|
B-7-7--10-10--14~--9~-|
G-7-7--11-11--14~--9~-|
D-7-7--11-11--14~--9~-|
A-5-5--9--9---12~--7~-|
E---------------------|
Riff
e-10-10-10-10--14-14-14-14--10-10-10-10--14-14-14-14-|
B-12-12-12-12--14-14-14-14--12-12-12-12--14-14-14-14-|
G-11-11-11-11--14-14-14-14--11-11-11-11--14-14-14-14-|
D-9--9--9--9---X--X--X--X---9--9--9--9---X--X--X--X--|
A--------------12-12-12-12---------------12-12-12-12-|
E----------------------------------------------------|
[ Tab from: http://www.guitaretab.com/r/red-hot-chili-peppers/72732.html ]
e-10-10-10-10--14-14-14-14---------|
B-12-12-12-12--14-14-14-14---------|
G-11-11-11-11--14-14-14-14---------|
D-9--9--9--9---X--X--X--X----------|
A--------------12-12-12-12--12-11~-|
E----------------------------------|
Chorus
e-------------------------|
B-7-7--10-10--14-14--9X9/-|
G-7-7--11-11--14-14--9X9/-|
D-7-7--11-11--14-14--9X9/-|x4
A-5-5--9--9---12-12--7X7/-|
E-------------------------|

e-------------------------|
B-7-7--10-10--14-14--9X9/-|
G-7-7--11-11--14-14--9X9/-|
D-7-7--11-11--14-14--9X9/-|x3
A-5-5--9--9---12-12--7X7/-|
E-------------------------|

e---------|
B-7~--6~--|
G-7~--6~--|
D-7~--6~--|
A-5~--4~--|
E---------|
Riff
e-10-10-10-10--14-14-14-14--10-10-10-10--14-14-14-14-|
B-12-12-12-12--14-14-14-14--12-12-12-12--14-14-14-14-|
G-11-11-11-11--14-14-14-14--11-11-11-11--14-14-14-14-|
D-9--9--9--9---X--X--X--X---9--9--9--9---X--X--X--X--|
A--------------12-12-12-12---------------12-12-12-12-|
E----------------------------------------------------|

e-10-10-10-10--14-14-14-14---------|
B-12-12-12-12--14-14-14-14---------|
G-11-11-11-11--14-14-14-14---------|
D-9--9--9--9---X--X--X--X----------|
A--------------12-12-12-12--12-11~-|
E----------------------------------|
End
e---------------------|
B---------777X666X----|
G-333X666X777X666X9X--|x3
D-444X777X777X666X9X9X
A-444X777X555X444X7X9X
E-222X555X----------7X

e-----------------|
B-----------------|
G-9---9---9---9---|
D-9-9-9-9-9-9-9-9-|
A-7-9-7-9-7-9-7-9-|
E---7---7---7---7-|
Listen to the song for the amount of times John does the ending.
Before the very last chord he just keeps doing the:
e-----------------|
B-----------------|
G-9---9---9---9---|
D-9-9-9-9-9-9-9-9-|
A-7-9-7-9-7-9-7-9-|
E---7---7---7---7-|
And then it ends on:
e------|
B------|
G-3~---
D-4~---
A-4~---
E-2~---

There's a backround guitar that just goes:
e------------------------------------|
B-------5555557777776666666000000000-|
G-666666-----------------------------|
D------------------------------------|
A------------------------------------|
E------------------------------------|
Related for Quixoticelixer tab