Song name
# A B C D E F G H I J K L M N O P Q R S T U V W X Y Z

Red Hot Chili Peppers - Million Miles Of Water tab

Million Miles of Water - Red Hot Chili Peppers
This song is a B-side of the Dani California single
ANY QUESTIONS CONTACT ME AT: yummy123457@yahoo.com

Intro/Verse
e|-0-0---2-2-2-2---3-3--------------------0-0---2-2-2-2---3-3---------------|
B|-0-0---3-3-3-3---3-3--------------------0-0---3-3-3-3---3-3---------------|
G|-0-0---4-4-4-4---4-4---7-7-7-7-7/9------0-0---4-4-4-4---4-4---------------|
D|-2-2---4-4-4-4---5-5---7-7-7-7-7/9------2-2---4-4-4-4---5-5---------------|
A|-2-2---2-2-2-2---5-5---5-5-5-5-5/7------2-2---2-2-2-2---5-5---------------|
E|-0-0-------------3-3--------------------0-0-------------3-3---------------|

|----------------0-0---2-2-2-2--3-3----------------------------------------|
|-7-7-10-8-7-8---0-0---3-3-3-3--3-3----------------------------------------|
|-7-7-7--7-7-7---0-0---4-4-4-4--4-4----7---7---7/9-------------------------|
|-7-7-7--7-7-7---2-2---4-4-4-4--5-5--9---9---9-----------------------------|
|----------------2-2---2-2-2-2--5-5----------------------------------------|
|----------------0-0------------3-3----------------------------------------|

Chorus
|-------------------------------------------------------------------------|
|-------15---------------15-------------12------------17------------17----|
|----16-16------------16---16--------12---12-------17---17-------17---17--|
|-17-------17------16--------16---14--------14--17--------17--19--------19|
|-------------17----------------------------------------------------------|
|-------------------------------------------------------------------------|

|-------15----------------------------------------------------------------|
|-------17------------15---------7-7-7--7-7--7-7-7------------------------|
|----17---17-------16---16-------7-7-7--7-7--7-7-7------------------------|
|-17--------17--17--------17-----7-7-7--7-7--7-7-7------------------------|
|--------------------------------5-5-5--5-5--5-5-5------------------------|
|-------------------------------------------------------------------------|

Thats all i have so far and I don't know the solo because i'm not that good enough to 
out solos yet
Tap to rate this tab
 
# A B C D E F G H I J K L M N O P Q R S T U V W X Y Z