Song name
# A B C D E F G H I J K L M N O P Q R S T U V W X Y Z

Red Hot Chili Peppers - Johnny Kick Hole In The Sky tab

|-14-14-14-14-14-14-14-14-14-14-14-14-14-14-14-14-|
|-15-15-15-15-15-15-15-15-15-15-15-15-15-15-15-15-|
|-12-12-12-12-12-12-12-12-12-12-12-12-12-12-12-12-|
|-14-14-14-14-14-14-14-14-14-14-14-14-14-14-14-14-|
|-------------------------------------------------|
|-------------------------------------------------|

|-14-14-14-14-14-14-14-14-14-14-14-14-14-14-14-14-|
|-15-15-15-15-15-15-15-15-15-15-15-15-15-15-15-15-|
|-12-12-12-12-12-12-12-12-12-12-12-12-12-12-12-12-|
|-14-14-14-14-14-14-14-14-14-14-14-14-14-14-14-14-|
|-------------------------------------------------|
|-------------------------------------------------|

|-12b-------------------------------------------------------------|
|-12b-------------------------------------------------------------|
|-12b-------------------------------------------------------------|
|-------2-x-x-2-x-x-x-2-x-x-x-x---2-x-x-x-x-x-x-2-x-x-x-2-x-x-x-x-|
|-----------------------------------------------------------------|
|-----------------------------------------------------------------|
Tap to rate this tab
 
# A B C D E F G H I J K L M N O P Q R S T U V W X Y Z