Song name
# A B C D E F G H I J K L M N O P Q R S T U V W X Y Z

Red Hot Chili Peppers - Otherside Live tab

e|-------------12-----------------------15-----------------------15-----|
B|---10---10--------10---10---13---13--------13---13---13---13--------13|
G|----------------------------------------------------------------------|
D|----------------------------------------------------------------------|
A|----------------------------------------------------------------------|
E|----------------------------------------------------------------------|

e|------------------14--------------------------------------------------|
B|---13---12---12--------12---12----------------------------------------|
G|----------------------------------------------------------------------|
D|----------------------------------------------------------------------|
A|----------------------------------------------------------------------|
E|----------------------------------------------------------------------|


To play this solo you need te correct rhytm, so go to www.youtube.com and whatch the 
to learn the rhytm.  Enjoy!!!!
Tap to rate this tab
# A B C D E F G H I J K L M N O P Q R S T U V W X Y Z