Song name
# A B C D E F G H I J K L M N O P Q R S T U V W X Y Z

Red Hot Chilli Peppers - Californication tab

INTRO 

   Am                             F 
e|------------------------------------------------------------| 
B|---------0---1----------------------------------------------| 
G|---------------------------------------0---2----------------| 
D|-----2------------------------------------------------------| 
A|-0---------------------------------3------------------------| 
E|-------------------------------1----------------------------| 


VERSE 
(play the same arpeggio as in the intro) 


    C                 G                    F        Dm 
And if ....... 


PRE-CHORUS 
(strum) 

   Am                            F7M 
e|-0------------------------------0---------------------------| 
B|-1------------------------------1---------------------------| 
G|-2------------------------------2---------------------------| 
D|-2------------------------------2---------------------------| 
A|-0------------------------------3---------------------------| 
E|------------------------------------------------------------| 

Pay your surgeon very well... 


CHORUS 
(strum) 

C            G    Dm     Am    C            G    Dm 
Dream of ...... 


SOLO 
(light disto tone) 

e-|------9-----------------------9--------------------------------------------| 

B-|-10---------7/9--7-------10---------7b(9)7-------7-7-7h5--------------5----| 

G-|---------------------------------------------------------6--------4-6------| 

D-|---------------------------------------------------------------------------| 

A-|---------------------------------------------------------------------------| 

E-|---------------------------------------------------------------------------| 


e-|------------------------------9----12----14------------9-----12--/16--14---| 

B-|-7b(8)r7--5--------------10------------------------10----------------------| 

G-|-------------6-------------------------------------------------------------| 

D-|---------------------------------------------------------------------------| 

A-|---------------------------------------------------------------------------| 

E-|---------------------------------------------------------------------------| 


e-|-17--16--14--12--14--12-----12--------------------------------12--------12-| 

B-|------------------------14-----14----12/14----12/14----12/14------12/14----| 

G-|---------------------------------------------------------------------------| 

D-|---------------------------------------------------------------------------| 

A-|---------------------------------------------------------------------------| 

E-|---------------------------------------------------------------------------| 


e-|-16-14-12----12------------------12---------------------| 
B-|----------14------14---12--------------15---14----------| 
G-|----------------------------14-------------------14-----| 
D-|-------------------------------------------------/------| 
A-|------------------------------------------------/-------| 
E-|-----------------------------------------------/--------| 
    On this note begin to replay the intro part _/ 


 TAB > --12/14---- = slide                      --14p12---- = pull-off 
       --7b(9)---- = bend whole step            --12h14---- = hammer 
       --7b(8)r7-- = bend half step and release
Tap to rate this tab
# A B C D E F G H I J K L M N O P Q R S T U V W X Y Z