Song name
# A B C D E F G H I J K L M N O P Q R S T U V W X Y Z

Red Hot Chilli Peppers - Around The World tab

Help us improve GuitareTab! Take a short survey!
Intro: 
                  (wooooooooooooooo!!!!!!!) 

E:--12----12----12----------------------------------------- 
B:--12----12----12----------------------------------------- 
G:--14b---14b---14b---------------------------------------- 
D:--------------------------------------------------------- 
A:--------------------------------------------------------- 
E:--------------------------------------------------------- 

This is when the rockin intro stops and the verse begins. This is played 
during the verse as well: 
                                     "All around the world we can..." 
E:--------------------------------------------------------- 
B:--------------------------------------------------------- 
G:--------------------------------------------------------- 
D:---3--5----3--5----3--5-----3--5----3--5-------3--5------ 
A:-5----------------------5-------------------5------------ 
E:--------------------------------------------------------- 


E:------------------------------- 
B:------------------------------- 
G:------------------------------- 
D:---3--5----3--5-----3-5----3-5- 
A:------------------5------------ 
E:------------------------------- 
       "I know I know for sure’?¶" 

 (aaaaaaaaahhhhh, aaahhhhhh, aaaaaaaaahhh’?¶) 
E:--------------------------------------------------------- 
B:--------------------------------------------------------- 
G:-------------------8----------------------10-8----------- 
D:-8h10-10--8-10-10----10-8h10-10--8-10-10--------8h10-10-- 
A:--------------------------------------------------------- 
E:--------------------------------------------------------- 







E:--------------------------------------------------------- 
B:--------------------------------------------------------- 
G:--------------------------------------------------------- 
D:-8-10-10-10-8--------------8------8------8-----8h10------ 
A:---------------8h10---8h10----10------10----------------- 
E:--------------------------------------------------------- 
  *Repeat through chorus 

Verse repeats 

Intro part 

Verse 

Chorus 

Outro: 
 Its just these three chords that he strums for four measures each. 

E: 13     15     17 
B: 15     17     19 
G: 14     16     18 
D: 15     17     19 
A: 
E: 

h - hammer on 
b - bend string up 
r - release bend
Related for Around The World tab