Song name
# A B C D E F G H I J K L M N O P Q R S T U V W X Y Z

Red Hot Chilli Peppers - By The Way tab

DATE:AUG 25 2002
TIME: 6:20 PM
**************************

 


This is my first time i tab a song. i'm sure it's 95% correct. so just listen to the song and get the rythm of it.
i hope you'll like it
Char!!!!!!!!!!!!!!!!!
Standard tuning:EADGBE
 
Tab by:Mathew Alibangbang/Crime $nipER{MAt_15}*GrAve $is+er Sh@fT* 
North Fairview, Phillipines, Manila, quezon city 

iNTRO/vERSE

E|--------------------------------
B|--------------------------------
G|--------------------------------
D|------10------------------------
A|-------8------------------------  8x
E|--------------------------------

E|---------------------------------
B|---------------------------------
G|---------------------------------  
D|--------14-----------------------  8x
A|--------12-----------------------
E|---------------------------------
    
E|--------------------------------
B|--------------------------------
G|--------------------------------
D|--------------------------------
A|--------7-----------------------   15x
E|--------5-----------------------

After he sing "Heavy Glow"
E|--------------------------------------
B|--------------------------------------
G|--------------------------------------
D|-------12----12------9-----9----------
A|-------10----10------11----11---------
E|--------------------------------------

THEN BACK TO THE iNTRO AGAIN

E|--X---X----X---X----X------------
B|--X---X----X---X----X------------
G|--X---X----X---X----X------------ do this more times
D|--X---X----X---X----X------------
A|--X---X----X---X----X------------ 
E|--X---X----X---X----X------------

another verse
E|------0----0--------X---X---X---X-------
B|------13---13-------X---X---X---X-------
G|------14---14-------X---X---X---X-------
D|--------------------X---X---X---X-------  just listen to the song
A|--------------------X---X---X---X-------  and get the rythm of it
E|--------------------X---X---X---X-------

E|--------------------------------------------
B|-----131313131313131313---------------------
G|--------------------------------------------
D|--------------------------------------------
A|--------------------------------------------
E|--------------------------------------------

CHORUS:
Am C  E  A (or you can use the intro)


Solo/Clean

E|--------------------------------
B|--------------------------------
G|--------------------------------
D|------10------------------------
A|-------8------------------------  8x
E|--------------------------------

E|---------------------------------
B|---------------------------------
G|---------------------------------  
D|--------14-----------------------  8x
A|--------12-----------------------
E|---------------------------------
    
E|--------------------------------
B|--------------------------------
G|--------------------------------
D|--------------------------------
A|--------7-----------------------   15x
E|--------5-----------------------

After he sing "Heavy Glow"
E|---------------------------------------
B|---------------------------------------
G|---------------------------------------
D|-------12----12-------9-------9--------
A|-------10----10------11-----11---------
E|---------------------------------------



(1)
E|------0----0------------------------ 
B|------13---13----------------------- 
G|------14---14-----------------------
D|------------------------------------  4x 
A|------------------------------------  
E|------------------------------------

E|--------------------------------------------
B|-----131313131313131313---------------------
G|--------------------------------------------
D|--------------------------------------------
A|--------------------------------------------
E|--------------------------------------------

Outro:
Am   C    E     A    


So there you go, i hope you'll like it, if you ahve any corrections just e-mail me
i'll be glad to hear it from you!
And i would like to thnk my pal Arriane bst drmer, gian my band and to all hu know me 
THank you!!!
take care
Tap to rate this tab
# A B C D E F G H I J K L M N O P Q R S T U V W X Y Z