Song name
# A B C D E F G H I J K L M N O P Q R S T U V W X Y Z

Red Hot Valentines - Everythings Fine tab

I was really bored one day so i picked up my guitarand the RHV cd and
went to work...it should be right...I hope....

E-------------------------|
B-------------------------|
G-4-4-4-------------------|
D-4-4-4-6-6-6-4-4-4-2-2-2-|
A-2-2-2-6-6-6-4-4-4-2-2-2-|
e-------4-4-4-2-2-2-------|

E-------------------------------------------------|
B-------------------------------------------------|
G-2-2-2-------4-4-4-4-4-4-2-2-2-------------------|
D-2-2-2-2-2-2-4-4-4-4-4-4-2-2-2-2-2-2-2-2-2-2-2-2-|
A-------2-2-2-2-2-2-2-2-2-------2-2-2-4-4-4-4-4-4-|
e-------------------------------------4-4-4-4-4-4-|

E-------------------------|
B-------------------------|
G-4-4-4-------------------|
D-4-4-4-2-2-2-6-6-6-4-4-4-|
A-2-2-2-2-2-2-6-6-6-4-4-4-|
e-------------4-4-4-2-2-2-|
Tap to rate this tab
 
# A B C D E F G H I J K L M N O P Q R S T U V W X Y Z