Song name
# A B C D E F G H I J K L M N O P Q R S T U V W X Y Z

Red House Glory - A Saviour tab

Red House Glory - A Saviour
Song: A Saviour
Artist: Red House glory
Tuning: Standard
Tabbed By: Tim Van de Voorde

Amazing new song, from an amazing band!
Please support this band, they are so talented, but also so unknown... Hope this guys 
will make it big!
This is tabbed by ear, so if you have any remarks, let me know!

Intro
E|----------15-------------------15----|
B|----17----------17-------17----------|
G|/17----17----17----17-16----16----16-| (4x)
D|-------------------------------------|
A|-------------------------------------|
E|-------------------------------------|

E|----------------------------------------------------|
B|-------12---------------------12----12-13-15-17-17~-|
G|-14-14----14-12-9-9-9~--14-14----14-----------------|
D|----------------------------------------------------|
A|----------------------------------------------------|
E|----------------------------------------------------|


“Everytime you cry”
No guitar, only bass


“I believe ...”
Guitar plays the same chords as the bass, you have to listen for the rhythm.
   C   Bm C   Bm   Am G  Am G
E|-8---7--8---7----5--3--5--3-|
B|-8---7--8---7----5--3--5--3-|
G|-9---7--9---7----5--4--5--4-|
D|-10--9--10--9----7--5--7--5-|
A|-10--9--10--9----7--5--7--5-|
E|-8---7--8---7----5--3--5--3-|


0:42 Intro again
E|----------15-------------------15----|
B|----17----------17-------17----------|
G|/17----17----17----17-16----16----16-| (2x)
D|-------------------------------------|
A|-------------------------------------|
E|-------------------------------------|

E|----------------------------------------------------|
B|-------12---------------------12----12-13-15-17-17~-|
G|-14-14----14-12-9-9-9~--14-14----14-----------------|
D|----------------------------------------------------|
A|----------------------------------------------------|
E|----------------------------------------------------|


“Time after time”
Only bass


“I believe ...”
Guitar plays the same chords as the bass, you have to listen for the rhythm.
   C   Bm C   Bm   Am G  Am G
E|-8---7--8---7----5--3--5--3-|
B|-8---7--8---7----5--3--5--3-|
G|-9---7--9---7----5--4--5--4-|
D|-10--9--10--9----7--5--7--5-|
A|-10--9--10--9----7--5--7--5-|
E|-8---7--8---7----5--3--5--3-|


1:17 “Savior” (2x)
E|----------15-------------------15----|
B|----17----------17-------17----------|
G|/17----17----17----17-16----16----16-|
D|-------------------------------------|
A|-------------------------------------|
E|-------------------------------------|

E|----------------------------------------------------|
B|-------12---------------------12----12-13-15-17-17~-|
G|-14-14----14-12-9-9-9~--14-14----14-----------------|
D|----------------------------------------------------|
A|----------------------------------------------------|
E|----------------------------------------------------|


1:41 Break
E|---------------------------------------------------------------|
B|---------------------------------------------------------------|
G|---------------------------------------------------------------|
D|---------------------------------------------------------------|
A|-------------------------------------------------3-3-3---------|
E|-1-1-1-1-1-1-1-1-0-0-0-0-3-3-3-3/5-5-5-5-5-5-5-5-------3-3-3-3-|

E|---------------------------------------------------------|
B|---------------------------------------------------------|
G|---------------------------------------------------------|
D|-----------------2-2-2-2---------------------------------|
A|-------------------------2-2-2-2-3-3-3-3-3-3-3-3---------|
E|-1-1-1-1-1-1-1-1---------------------------------3-3-3-3-|


Repeat the chords and end with the intro.


Tabbed by Tim Van de Voorde.
Tap to rate this tab
# A B C D E F G H I J K L M N O P Q R S T U V W X Y Z