Song name
# A B C D E F G H I J K L M N O P Q R S T U V W X Y Z

Red House Painters - Drop tab

For those that don't want to tune their guitars to some wacky tuning just to play this 
here's the intro in drop D. The only thing is that there's a bit of a stretch for the 
chord shape.

Capo 2

E--------------------------------------------------------------------------|
B--0-------0h1----------0h1-----0h1-------------1------------1--------1----|
G--------0------------0-------0-------------0h2----------0h2------0h2------|
D------0------------0------------------------------------------------------|
A--0------------0-----------0-------------3------------3-------------------|
D-------------------------------------3------------3------------3----------|

E--------------------------------------------------------------------------|
B------------1------------1-------1-------------1------------1--------1----|
G----------0------------0-------0-----------0h2----------0h2------0h2------|
D------0-5----------0-5-------5--------------------------------------------|
A--3------------3-----------3-------------3------------3-------------------|
D-------------------------------------3------------3------------3----------|

aaand repeat
Tap to rate this tab
# A B C D E F G H I J K L M N O P Q R S T U V W X Y Z