Song name
# A B C D E F G H I J K L M N O P Q R S T U V W X Y Z

Red House Painters - Brown Eyes chords

Artist: Red House Painters
Song: Brown Eyes
Album: Red House Painters I
Tabbed by: Don Tago
Email: recebedou@yahoo.com



Standard Tuning: [Capo I]


Chords used:
    EADGBe
Am: 002210
Em: 022000
F:  133211



Intro/Verse 1 tab:
Line 1:
   Tell me and...
e|------------------------------------------|
B|-----2-----3---2--------------------------|
G|-------2----------------------------2-----|
D|---2-----2---2---2--------2-------2---2---| repeat,
A|-0------------------4-2-4----2--0-------0-|
E|------------------------------------------|


Verse 2 tabs:
Line 2:
   I understand...
e|---------------------0----0----------0----0-----------0----0----|
B|---------2-------0------0--------0------0---------0------0------|
G|-----------2-------2--------2------2--------2-------2--------2--|
D|-----2----------------------------------------------------------| then,
A|---2---2--------------------------------------------------------|
E|-0-------------2---------------2----------------2---------------|

Line 3:
    I see the pain...
e|----------------1--0---------------2------|
B|-----------------------3-2----------------|
G|------2--------------------2-----2--------|
D|----2---2----2-----------------2-----2----| then,
A|-----------4-------0-------0-----------0--|
E|--4--------------------3------------------|

Line 4:
    Fires burning...
e|--0---------------------------------------0--|
B|--------2--3-2---1--------1--0--------1---2--|
G|------2-------------0---0-------0---0-----2--|
D|----2------2----------2-----------2-------2--|
A|--0--------------3-----------2------------0--|
E|------------------------------------------0--|


Outro chords:  A - Em - A - Em - A - Em - A - F - A - Em - A


===================================================================#

Song structure and lyrics:


Intro: [play Intro/Verse 1 tab x2]


Verse 1: [use Intro/Verse 1 tab through-out]
Tell me and take your time
Set free this soul of mine
Freeze frame this sedate moment
Lie me in your quiet ground


Verse 2: [use Verse 2 tab through-out]
I understand your
Tired eyes for these
Tired homes and tired trees
I see the pain in those brown eyes
Fires burn in autumn skies


[play outro chords here x1]
Tap to rate this tab
# A B C D E F G H I J K L M N O P Q R S T U V W X Y Z