Red House Painters - Brown Eyes tab

Note: I did not tab this. This tab was taken
from http://blueguitar.info/. However, I did
make adjustments to the tab. Also, I tried to
line up the lyrics correctly, but listen to
the song to make sure it's perfect.

Brown Eyes
On : Red House Painters (Roller coaster)
By : The Red House Painters
Tuning : EbGCFBbD (Low to High)


Chords : 
         
         <033000>
         <088790>

-------------------------------------------------------------------------------

_________________________________________________________________X6
---------------- ---------------- ---------------- -----------------|
------4--------- 5-------4------- ----------0----- -----------------|
----0-----0----- ---------------- 2-----2--------- 0---------0------|
---------------- ---------------- ---------------- ------3----------|(3)
3-----------3--- ----3-------3--- ----3----------- --------3--------|
---------------- ---------------- ---------------- ----0-------0----|

Tell me and take your time
Set free this soul of mine
Freeze frame this sedate moment
Lie me in your quiet ground


---------------- 0--------------- ------2--------- 3---------------|
------2--------- --------0------- ----------2----- --------2-------|
----0-----0----- ---------------- ----0-------0--- ----0-----------|
------------0--- ----0----------- ---------------- ----------------|
---------------- ---------------- ---------------- ----------------|
2--------------- ---------------- 4--------------- ----------------|

I understand your                 Tired eyes for these

------------3--- ------------3--- ------------3--- ----------------|
------2--------- ------2--------- ------2--------- ----------------|
----0----------- ----0----------- ----0----------- ----------------|
---------------- ---------------- ---------------- ----------------|
---------------- ---------------- ---------------- ----------------|
0-------0------- 1--------------- 2--------------- ----------------|

Tired homes and tired trees

7--------------- --------4------- 8--------------- ----------------|
------5--------- 4--------------- ------7--------- 5-------4---0---|
----5-------5--- ---------------- ----0-------0--- ----0-----------|
---------------- ---------------- ---------------- ----------------|
---------------- 5--------------- ---------------- ----------------|
0--------------- ---------------- 7--------------- 5---------------|

I see the pain in those                            Brown eyes

----------5----- ---------------- 3-----------3--- 1-------0-------|
---------------- ---------------- ---------------- ----------------|
------0-------0- ---------------- ------0--------- ----0-----------|
----7-------7--- ---------------- ----2----------- ----------------|
---------------- ---------------- 3--------------- 1---------------|
0--------------- 0--------------- ---------------- ----------------|

                                  Fires            Burn   in

----------0----- ----------0-----|
3--------------- 2---------------|
------0--------- ------0---------|
----3-------3--- ----0---0---0---|
---------------- ----------------|
3--------------- 2---------------|

Autumn                            Skies

        [Strum These Chords]

         
         
         <033000>
         <088790>

        [Then Play]

                                  STRUM____________________________
----3---0------- ----1---0------- 0--------------- 3---------------|
--2---2-2------- --2---2-2------- 0--------------- 0---------------|
0-------0------- 0-0---0-0------- 0--------------- 2---------------|
x-------x------- 0-------0------- 3--------------- 3---------------|
3-------3------- 1-------1------- 3--------------- 3---------------|
---------------- ---------------- 0--------------- 0---------------|

__________________________         STRUM____________________________
(0)-------------- ------------0-0- 0--------------- --------0-------|
 7--------------- --------5-5-x-x- 0-------2------- 2-------0-------|
 5--------------- --------5-5-5-5- 0-------0------- 0-------0-------|
 6--------------- --------6-6-6-6- 2-------2------- 0-------0-------|
 6--------------- --------6------- 3-------3------- 1-------1-------|
 0--------------- --------0------- ---------------- ----------------|


0---------------|
0---------------|
0---------------|
3---------------|
3---------------|
0---------------|
Tap to rate this tab
 
# A B C D E F G H I J K L M N O P Q R S T U V W X Y Z