Song name
# A B C D E F G H I J K L M N O P Q R S T U V W X Y Z

Red House Painters - Lord Kill The Pain tab

---------------------------------------------------------------------------
               Red House Painters - Lord Kill the Pain
                        Down Colorful Hill
---------------------------------------------------------------------------

To match the recording you may have to either tune down a whole step or use a capo. 
But it sounds fine in standard tuning too.

Intro:

e|-----------------------------------|
B|-----------------------------------|
G|----0-------0-------4-------2------|
D|----5-------4-------5-------4------|
A|----7-------5-------5-------0------|
E|-----------------------------------|

Section 1:

e|--------2-----2-2-2------2-------2-2------2-----2-2-2--2-2-2-------2-2-----|
B|--------3-----3-3-3------3-------3-3------3-----3-3-3--3-3-3-------3-3-----|
G|--------2-----2-2-2------0-------0-0------0-----0-0-0--0-0-0-------0-0-----|
D|----0---------0-0-0------0-------0-0------0-----0-0-0--2-------0-----------|
A|----0----------------2---------------------------------2-------------------|
E|-----------------------------0--------3------------------------------------|

e|--------2----------------2-------2-2------2-----2-2-2--2-2-2-------2-2-----|
B|--------3----------------3-------3-3------3-----3-3-3--3-3-3-------3-3-----|
G|--------2-----0----------0-------0-0------0-----0-0-0--0-0-0-------0-0-----|
D|----0-----------4--------0-------0-0------0-----0-0-0--2-------0-----------|
A|----0----------------2---------------------------------2-------------------|
E|-----------------------------0--------3------------------------------------|

Section 2: 
                                     (x2)              (x3)               
e|--------3-----3-3-3------2-------2----|-----------------|
B|--------3-----3-3-3------3-------3----|--------0--------|
G|--------0-----0-0-0------2-------2----|-------------0---|
D|--------0-----0-0-0--0-------0--------|------2----------|
A|--------------------------------------|--3--------------|
E|----3---------------------------------|-----------------|

e|---------------------------------------------------------------------------|
B|----7------5------7----------5---3------0-------8------7------3------0-----|
G|----0------0------0----------0---0------2-------0------0------0------2-----|
D|----4------2------4----------2---0------2-------5------4------0------2-----|
A|----5------3------5----------3---2------0-------7------5------2------0-----|
E|---------------------------------------------------------------------------|

Bridge Chords:

e|----0---------------0---------------0---------------0-------0-------0------|
B|----0---------------0---------------0---------------0-------0-------0------|
G|----2---------------2---------------0---------------4-------2-------4------|
D|----2---------------0---------------2---------------4-------2-------4------|
A|----0---------------x---------------x---------------x-------x-------x------|
E|--------------------2---------------3---------------3-------3-------3------|(x2)

      D (2 bars)      C (2 bars)
e|----2---------------0---------------|
B|----3---------------1---------------|
G|----2---------------0---------------|
D|----0---------------2---------------|
A|----0---------------3---------------|
E|------------------------------------| (x4)

Interlude (*signified by change in tempo) Chords:

e|----0-------------0------0------0--------------0-------------0------------|
B|----0-------------0------0------1--------------0-------------0------------|
G|----2-------------2------2------0--------------0-------------2------------|
D|----2-------------0------0------2--------------2-------------2------------|
A|----0-------------x------x------3--------------2-------------0------------|
E|------------------2------3------3--------------0--------------------------|

Outro/Ending: Play the Verse section again and fade out.


Lyrics:

Lord kill the pain
Lord, kill the pain

Don't want to ask you again
Kill my girlfriend, and kill my best friend Sam
Cause I saw them making eyes again

Lord kill the pain
Lord, kill the pain

Don't want to ask you again
Kill my neighbors, and all my family too
They doubt my direction

Lord let it rain
Lord, let it rain

Don't want to ask you again
Drown my country, drown everyone but me
So I can live peacefully

Or put me to sleep here, and wake me in Japan
I want to speak a new language

Drop me a line and pull me out
But do not find me amongst, dead underground
Let me hear the whining sound, of a pig drown

And lead me over summery hill
To a place I like to think about
And sedate me with Tylenol pills
Oh how I love to dream about

Drop me a line and pull me out
But do not find me amongst, life on the ground
Let me see the burning down, of my home town

Lord kill the pain
Lord, kill the pain


============================================================================
This tab is an edited version of a pre-existing tab found at:
http://www.blueguitar.info/Tabs/RedHousePainters/DownColorfulHill/LordKillThePainV1.txt
============================================================================
Tap to rate this tab
 
# A B C D E F G H I J K L M N O P Q R S T U V W X Y Z