Song name
# A B C D E F G H I J K L M N O P Q R S T U V W X Y Z

Red House Painters - Have You Forgotten tab

Title: Have You Forgotten
Artist: Red House Painters
Album: Songs For A Blue Guitar

Tuning: EADGCe, capo 3 fret
This is the faster, acoustic version from Songs For A Blue Guitar.
These chords sound more or less spot on to me.

Intro:
These diagrams don't imply the rhythm, but it's easy to hear when to change chords.

          Part A:
 | Cadd9 |   C       |  F7M C/F  |   G   Am      |
e|--(0)--|--(0)-(0)--|--(0)-(0)--|---0---0---0---|
C|---0---|---0---0---|---0---0---|---0---0---0---|
G|---0---|---0---0---|---2---0---|---4---5---4---|
D|---0---|---2---0---|---3---3---|---0---0---0---|
A|---3---|---3---3---|---3---3---|---------------|
E|-------|-----------|---1---1---|---3---5---3---|
The first chord is only played twice in the start of the song.
The Am is only played 2-3 times before it goes back to the G.

Part B:
Then this:
Play the first chord for three bars, then play the last part.
e|---0---|---0---0---0---0---0---0---0---0---|
C|---0---|---0---0---0---0---0---0---0---0---|
G|---0---|---0---0---0---0---0---0---0---0---|
D|---3---|---2-h-3---3---3---0---0---0---0---|
A|---3---|---3---3---3---3---3---3---3---3---|
E|---1---|---1---1---1---1---1---1---1---1---|

Verse:

The verse essentially consists of the intro chords repeated twice, followed by a new part:

Part C:
e|--(0)--(0)--|---0---|---0---|---0---0----0---0---|
C|---0----0---|---0---|---0---|---0---0----0---0---|
G|---0-or-4---|---0---|---0---|---0---0-or-5---4---|
D|---0----0---|---2---|---0---|---0---0----0---0---|
A|------------|---0---|---2---|--------------------|
E|---3----3---|-------|-------|---5---3----5---3---|

The structure of the verse is like this:
Part A
Part B
Part A
Part B
Part C
Part B
Part C
Part B

After this you play the intro again, and repeat the whole thing.

Chorus (have you forgotten how to love yourself):

e|---8---|---0---|---0---|---3---|---0---|---3---|--0--0--0--|
C|---0---|---0---|---0---|---0---|---0---|---0---|--0--0--0--|
G|---0---|---0---|---0---|---0---|---0---|---0---|--0--0--0--|
D|---0---|---0---|---0---|---0---|---3---|---0---|--0--0--0--|
A|-------|-------|-------|-------|---3---|-------|-----------|
E|---8---|---7---|---5---|---3---|---1---|---3---|--5--7--8--|

That's pretty much all of the acoustic parts in the song, hopefully someone else can 
figure out the slide guitar parts, all I have bothered to figure out is
e|---3-3-3-1-0---3---------|
C|-------------2---2s4-0---|
G|-------------------------|
D|-------------------------|
A|-------------------------|
E|-------------------------|
Tap to rate this tab
# A B C D E F G H I J K L M N O P Q R S T U V W X Y Z