Song name
# A B C D E F G H I J K L M N O P Q R S T U V W X Y Z

Red Jumpsuit Apparatus - Choke tab

MY lAST VERSION
b- Bend
h- Hammer-on
p- Pull-off
s(/)- Slide
V- start Vibrato; x^x^x^x^ - Vibrato

Part A
Guitar 1 rhythm
E|-------------------------------------------------------------------------|
B|-------------------------------------------------------------------------|
G|-------------------------------------------------------------------------|
D|-6~~~~x--6666666666666666222222222222222299999999999999994444444444444444|
A|-6~~~~x--6666666666666666222222222222222299999999999999994444444444444444|
D|-6~~~~x--6666666666666666222222222222222299999999999999994444444444444444|

Guitara 2 Solo
E|-------------------------------------------------------------------------|
B|---------------------12-11------12-11------------12--11------------12|12-|
G|-13----16---------11---------11--------------11----------------11--------|
D|---x16---x16---999--9--9--999--9--9--11|11|11--11--11--11|11|11--11------|
A|-11----14----------------------------------------------------------------|  
D|-------------------------------------------------------------------------|
                 ***  *  *  ***  *  *   *  *  *   *   *   *  *  *   * 
Guitara 1
E|-------------------------------------------------------------------------|
B|-------------------------------------------------------------------------|
G|-88888888888888884444444444444444----------------------------------------|
D|-6666666666666666222222222222222299999999999999994444444444444444--4/6---|
A|-6666666666666666222222222222222299999999999999994444444444444444--4/6---|
D|-6666666666666666222222222222222299999999999999994444444444444444--4/6---|
 
Guitara 2
E|-------------------------------------------------------------------------|
B|---------------------12-11------12-11------------12--V11^12^11^12..7s9---|
G|-13----16---------11---------11--------------11--------------------------|
D|---x16---x16---999--9--9--999--9--9--11|11|11--11--11--------------------|
A|-11----14----------------------------------------------------------------|
D|-------------------------------------------------------------------------|
                 ***  *  *  ***  *  *  *  *  *   *   *
Part B
Guitar 1&2
E|-------------------------------------------------------------------------|
B|-------------------------------------------------------------------------|
G|-------------------------------------------------------------------------|
D|-6666666666666666222222222222222299999999999999994444444444444444--------|
A|-6666666666666666222222222222222299999999999999994444444444444444--------|
D|-6666666666666666222222222222222299999999999999994444444444444444--------|
   ****************************************************************
Guitar 1&2
E|-------------------------------------------------------------------------|
B|-------------------------------------------------------------------------|
G|----------------------------------------------------------Guitar1--------|
D|-6666666666666666222222222222222299999999999999994444444444444444--------|
A|-6666666666666666222222222222222299999999999999994444444444444444--------|
D|-6666666666666666222222222222222299999999999999994444444444444444--------|
   *********************************************************
                                                 Guitar 2 E|---------------|
                                                          B|---------------|
                                                          G|6666666--------|
                                                          D|---------------|
                                                          A|4444444--------|
                                                          D|---------------|
Part A
Part B
Part A

Part C

Guitar 1
E|-------------------------------------------------------------------------|
B|-------------------------------------------------------------------------|
G|-------------------------------------------------------------------------|
D|-22222222222222226666666644444--------22222222222222226666666644444x-----|
A|-22222222222222226666666644444-----x3-22222222222222226666666644444x-----|
D|-2222222222222222666666664444464s2~---22222222222222226666666644444x-----|
                                                                ****
Guitar 2
E|-------------------------------------------------------------------------|
B|-------------------------------------------------------------------------|
G|-44444444444444448888888866666--------13---16--18---20--18--/------------|
D|-----------------------------------x2 --x24--x8--x16--x8--x4/slide down--|
A|-2222222222222222666666664444464s2~---11---14--16---18--16--/------------|
D|-------------------------------------------------------------------------|

Part A
Part A
End (:

Lirics
Look into my eyes
I am the one who you despise
Cause I exposed your lies
And it's my turn to watch you burn (to watch you burn)

I hope you choke
On the letters that you wrote
Telling me that you will be here 'til the end
You'll never see
A different side to me
A side that you just did not ever understand

Sing it like last time
With every line
Ends with a rhyme
You'll get great reviews
But I refuse to be reused (to be reused)

I hope you choke
On the promises you broke
Telling me that you would always be my friend
You'll never see
A different side to me
A side that you just did not ever understand

I hope you choke (on the messages you wrote)
I hope you choke (on the promises you broke)
I know you'll choke (on the messages you wrote)
I know you'll choke (I hope you'll choke)
Tap to rate this tab
 
# A B C D E F G H I J K L M N O P Q R S T U V W X Y Z